Oops, an error
Loading. Please wait.

Why Did You Do It bass

version 1
version 1

Whole song

Interactive

by Stretch
37 views 15 this week
no commentswrite comment
1 2 3 4 5
2 more votes to show rating
add to favorites
×
Save as Personal and add changes to this tab that will be seen only by you. Learn more ›
×
You can save this tab as Personal to edit and correct it or add notes. All changes will be seen only by you. Learn more »
launch autoscroll
font size
0
reset
guitar tuner
edit
Autoscroll
slow
fast
+/-
esc
set tempo
stop
4/4

[Intro/Verse] 
G|--------------------------------|--------------------------------|
D|--------------------------------|--------------------------------|
A|2-------------2-2---------------|2-------------2-2---------------| (x6)
E|--------------------------------|--------------------------------|
 
[Chorus]
G|--------------------------------|--------------------------------|
D|2-------------2-2---------------|2-------------2-2---------------|
A|--------------------------------|--------------------------------|
E|--------------------------------|--------------------------------|
 
G|--------------------------------|------------------------9-7-----|
D|--------------------------------|--------------------------------|
A|2-------------2-2---------------|--------------------------------|
E|--------------------------------|7-------------7-7---------------|
 
G|--------------------------------|--------------------------------|
D|--------------------------------|--------------------------------|
A|--------------------------------|----------------------------0---|
E|0-------------0-0---------------|0-------------0-0---------------|
                                                                     
G|--------------------------------|--------------------------------|
D|--------------------------------|--------------------------------|
A|2-------------2-2---------------|2-------------2-2---------------|
E|--------------------------------|--------------------------------|
 
G|--------------------------------|--------------------------------|
D|----------------------------2---|4-------------4-4-----------2---|
A|--------------------------------|------------------------2-------|
E|0-------------0-0---------------|--------------------------------|

[Verse]    
G|--------------------------------|--------------------------------|
D|--------------------------------|--------------------------------|
A|2-------------2-2---------------|2-------------2-2---------------| (x4)
E|--------------------------------|--------------------------------|

G|--------------------------------|----------------------------2---|
D|--------------------------------|------------------------4-------|
A|2-------------2-2---------------|2-------------2-2---------------|
E|--------------------------------|--------------------------------|

G|--------------------------------|--------------------9-119-------|
D|--------------------------------|----------------------------12--|
A|2-------------2-2---------------|2-------------2-2---------------|
E|--------------------------------|--------------------------------|
 
[Chorus]
G|--------------------------------|--------------------------------|
D|2-------------2-2---------------|2-------------2-2-------4-------|
A|--------------------------------|--------------------------------|
E|--------------------------------|----------------------------5---|

G|--------------------------------|--------------------------------|
D|--------------------------------|------------------------2-0-----|
A|2-------------2-2---------------|2-------------2-2---4-----------|
E|--------------------------------|--------------------------------|

G|--------------------------------|--------------------------9-7---|
D|2-------------2-2---------------|--------------------------------|
A|--------------------------------|7-------------7-7---------------|
E|--------------------------------|--------------------------------|

G|--------------------------------|--------------------------------|
D|--------------------------------|----------------------------0---|
A|2-------------2-2---------------|2-------------2-2---------------|
E|--------------------------------|--------------------------------|

G|--------------------------------|--------------------------------|
D|2-------------2-2-----------2---|4-------------4-4-----------2---|
A|--------------------------------|------------------------2-------|
E|--------------------------------|--------------------------------|

G|--------------------------------|--------------------------------|
D|--------------------------------|--------------------------------|
A|--------------------------------|--------------------------------|
E|--------------------------------|--------------------------------|

[Instrumental]
G|--------------------------------|--------------------------------|
D|--------------------------------|--------------------------0-2-4-|
A|2-----------2-2---2---2-2-2-----|2---------------2---2---4-------|
E|--------------------------------|--------------------------------|

G|--------------------------------|--------------------------------|
D|--------------------------------|--------------------------------|
A|2-----------2---2-2-----2-2-----|2-------------2-2-------2-----0-|
E|--------------------------------|--------------------------------|

G|--------------------------------|------------------------4-------|
D|--------------------------------|--------------------------------|
A|2-------------2-2---------------|2-------------2-2---------------|
E|--------------------------------|--------------------------------|

G|------------4-4---4-------------|------------4-4---2-4-----------|
D|--------------------------------|--------------------------------|
A|2-------------------------------|2---------------------------2---|
E|--------------------------------|------------------------------5-|

G|--------------------------------|--------------------------------|
D|--------2-----------------------|--------4-----------------------|
A|--------------------------------|--------------------------------|
E|--------------------------------|--------------------------------|

G|----------------4-----------2-4-|----------4-----4---------------|
D|------------------------2-4-----|--------------------------------|
A|--------2-----------------------|----2---2-----------------------|
E|--------------------------------|----------------------------2-5-|

[Verse]
G|--------------------------------|--------------------------------|
D|--------------------------------|--------------------------------|
A|2-------------2-2-------------2-|2-------------2-2---------------|
E|--------------------------------|--------------------------------|

G|--------------------------------|--------------------------------|
D|--------------------------------|--------------------------------|
A|2-------------2-2---------------|2-------------2-2---------------|
E|--------------------------------|--------------------------------|

G|--------------------------------|--------------------------------|
D|--------------------------------|--------------------------------|
A|2-------------2-2---------------|2-------------2-2-----------0---| (x2)
E|--------------------------------|--------------------------------|

G|--------------------------------|--------------------------------|
D|--------------------------------|--------------------------------|
A|2-------------2-2---------------|2-------------2-2---------------|
E|--------------------------------|--------------------------------|

[Chorus]
G|--------------------------------|--------------------------------|
D|--------------------------------|--------------------------------|
A|--------------------------------|--------------------------------|
E|0-------------0-0---------------|0-------------0-0---------------|

G|--------------------------------|--------------------------------|
D|--------------------------------|------------------------0-------|
A|2-------------2-2---------------|2---------2---2-2---------------|
E|--------------------------------|--------------------------------|
                                                                   
G|--------------------------------|--------------------------------|
D|2-------------2-2---------------|2-------------2-2---------------|
A|--------------------------------|----------------------------0---|
E|--------------------------------|--------------------------------|

G|----------------------------2-4-|--------------------------------|
D|------------------------2-4-----|----------------------------0---|
A|2-------------2-2---------------|2-------------2-2---------------|
E|--------------------------------|--------------------------------|

G|--------------------------------|--------------------------------|
D|2-------------2-2---------------|4-------------4-4-------4---2---|
A|--------------------------------|--------------------------------|
E|--------------------------------|--------------------------------|

G|--------------------------------|--------------------------------|
D|--------------------------------|--------------------------------|
A|2-------------2-2---------------|2-------------2-2-----------2---|
E|--------------------------------|--------------------------------|

[Outro]
G|--------------------------------|--------------------------------|
D|--------------------------------|--------4-----------------------|
A|--------------------------------|--------------------------------|
E|--------0-----------------------|--------------------------------|

G|--------------------------------|4-------------------------------|
D|--------------------------------|--------------------------------|
A|--------2-----------------------|--------------------------------|
E|--------------------------------|--------------------------------|

G|--------------------------------|--------------------------------|
D|--------------------------------|--------------------------------|
A|--------------------------------|2-------------------------------|
E|--------------------------------|--------------------------------|
Suggest correction
Creating personal tab
Creating personal tab
You can edit any tab online and save it as your Personal.

You can edit, replace or remove any tab part or add personal notes – all changes will be seen only by you.

Personal tabs can be accessed anytime from any device, even offline.
Learn more »
Give kudos to tab author, rate the tab!
1 2 3 4 5
comments
print report bad tab
guest
You may want to rate the tab now too:
select rating
Wanna post a correction for this tab? Suggest correction