Oops, an error
Loading. Please wait.

Why Did You Do It Tab

6,980 views 63 this week
1 commentread comment
1 2 3 4 5
excellent!
x 3
add to favorites
launch autoscroll
font size
0
reset
how to read this tab
guitar tuner
Tab Pro tools
  • play this tab
  • loop segment
  • change instrument
  • show fretboard
  • metronome
Autoscroll
slow
fast
+/-
esc
set tempo
stop
Contributor
Difficulty
novice
Transcribed by lilisteph

Stretch - Why did you do it


--------------------------
PATTERNS AND FILLS SUMMARY
--------------------------

Guitar 1 (clean) always plays the following rythm pattern

E pattern :

    ^ Ham V  ^  V  ^  V  ^  V  ^  V  ^  V
E|--7-(7)-7--x--x--7--x--x--x--7--x--x--7---|
B|--7-~8--8--x--x--8--x--x--x--8--x--x--8---|
G|--7-(7)-7--x--x--7--x--x--x--7--x--x--7---|
D|--7-~9--9--x--x--9--x--x--x--9--x--x--9---|
A|--7-(7)-7--x--x--7--x--x--x--7--x--x--7---|
E|------------------------------------------|

F# pattern :

    ^ Ham V  ^  V  ^  V  ^  V  ^  V  ^  V
E|--9-(9)-9--x--x--9--x--x--x--9--x--x--9---|
B|--9-~10-10-x--x--10-x--x--x--10-x--x--10--|
G|--9-(9)-9--x--x--9--x--x--x--9--x--x--9---|
D|--9-~11-11-x--x--11-x--x--x--11-x--x--11--|
A|--9-(9)-9--x--x--9--x--x--x--9--x--x--9---|
E|------------------------------------------|

B pattern :

    ^ Ham V  ^  V  ^  V  ^  V  ^  V  ^  V
E|--2-(2)-2--x--x--2--x--x--x--2--x--x--2---|
B|--2-~3--3--x--x--3--x--x--x--3--x--x--3---|
G|--2-(2)-2--x--x--2--x--x--x--2--x--x--2---|
D|--2-~4--4--x--x--4--x--x--x--4--x--x--4---|
A|--2-(2)-2--x--x--2--x--x--x--2--x--x--2---|
E|------------------------------------------|



Guitar 2 (sligthly distorded and wah) fills :

B fill :

E|------------------------------------------|
B|------------------------------------------|
G|------------------------------------------|
D|----------7-------9-----------------------|
A|----------------------------------7--9----|
E|--7---------------------------------------|


E fill (same as B fill one string lower) :

E|------------------------------------------|
B|------------------------------------------|
G|----------7-------9-----------------------|
D|----------------------------------7--9----|
A|--7---------------------------------------|
E|------------------------------------------|


B fill end (same as B fill with a different ending) :

E|------------------------------------------|
B|------------------------------------------|
G|------------------------------------------|
D|----------7-------9-----------------------|
A|----------------------9--8--8--7--7--5----|
E|--7---------------------------------------|


---------------------------------
END OF PATTERNS AND FILLS SUMMARY
---------------------------------



--------------
SONG STRUCTURE
--------------



INTRO :

Guitar 1        E pattern       F# pattern      B pattern       B pattern
Guitar 2                                        B fill          B fill


VERSE :

Guitar 1        B pattern       B pattern
Guitar 2        B fill          B fill
Lyrics          I've been thinking 'bout what you have done to me

Guitar 1        B pattern       B pattern
Guitar 2        B fill          B fill
Lyrics          The damage is much deeper than you'll ever see

Guitar 1        B pattern       B pattern
Guitar 2        B fill          B fill
Lyrics          Hit me like a hammer to my head


Guitar 1        B pattern       B pattern
Guitar 2        B fill          B fill end
Lyrics          I wonder were you pushed or were you led ?


CHORUS :

Guitar 1        E pattern       E pattern
Guitar 2        E fill          E fill
Lyrics          Why did you do it ? Why did you do that thing to me ?

Guitar 1        B pattern       B pattern
Guitar 2        B fill          B fill

Guitar 1        E pattern       E pattern
Guitar 2        E fill          E fill
Lyrics          Why did you do it ? Why did you do that thing to me ?

Guitar 1        B pattern       B pattern
Guitar 2        B fill          B fill

Guitar 1+2      E pattern
Lyrics          The only one who knows the truth,

Guitar 1+2      F# pattern
Lyrics          Man it's him me and you.


Guitar 1        B pattern       B pattern       B pattern       B pattern
Guitar 2        B pattern       B pattern       B pattern       B fill end


VERSE (same as verse 1) :
My friends they listen to the things i say
They listen and they hear more everyday
But i know they never understand it
Because it was no accident you planned it.

CHORUS (same as chorus 1 including lyrics)


(spoken: one, two)


(instrumental)
Guitar 1        B pattern       B pattern       B pattern       B pattern
Guitar 2        B fill          B fill          B fill          B fill

Guitar 1        B pattern       B pattern       B pattern       B pattern
Guitar 2        B fill          B fill          B fill          B fill end

Guitar 1+2      E pattern       F# pattern

Guitar 1        B pattern       B pattern       B pattern       B pattern
Guitar 2        B fill          B fill          B fill          B fill end


VERSE (same as verse 1 including lyrics)

CHORUS (same as chorus 1 including lyrics)

Guitar 1        B pattern       B pattern
Guitar 2        B fill          B fill  end

Guitar 1+2      E pattern       F# pattern      B pattern       B
comments
We did not receive enough feedback on this tab! Please rate:
print report bad tab
1 2 3 4 5
1 comment total.
0 reply
PreDrag Pro wrote on February 8 2014, 09:08 am

Thank you. I play on acoustic guitar and its very good.

I want to post or [tab]
guest
You may want to rate the tab now too:
select rating
Please do not post tabs as comments. Select "correction" instead!