Oops, an error
Loading. Please wait.

Dreams Tab

70 views 3 this week
no commentswrite comment
1 2 3 4 5
3 more votes to show rating
add to favorites
launch autoscroll
font size
0
reset
how to read this tab
guitar tuner
×
Best way to learn
"Dreams"
Autoscroll
slow
fast
+/-
esc
set tempo
stop
AFINACION:
E-B-G-D-A-D

INTRO Y VERSO I:
    D#
D|--1-1-4-1-4-1-4-1-3-1-3-1-3-1-3-1-1-1-4-1-4-1-4-1-3-1-3-1-3-1-3--|
                            Me cuesta?
    G#
G|--1-1-4-1-4-1-4-1-3-1-3-1-3-1-3-1-1-1-4-1-4-1-4-1-3-1-3-1-3-1-3--|
   ?respirar,                     Dime en donde?
    D#
D|--1-1-4-1-4-1-4-1-3-1-3-1-3-1-3-1-1-1-4-1-4-1-4-1-3-1-3-1-3-1-3--|
   ?Estas,                        Quiero tu luz.

CORO I:
   D#                              G#
G|-x8-x8-x8-xxxx---x8-x8-x8-xxxx-|------------------------------------|
D|-x8-x8-x8-xxxx---x8-x8-x8-xxxx-|-669-9-8-8-666666669-9-8-8-66666666-|
A|-X6-x6-x6-xxxx---x6-x6-x6-xxxx-|-669-9-8-8-666666669-9-8-8-66666666-|
d|-x0-x0-x0-xxxx---x0-x0-x0-xxxx-|-669-9-8-8-666666669-9-8-8-66666666-|

   Brlla   eres   mi   ser

   D#
G|-x8-x8-x8-xxxx---x8-x8-x8-xxxx-|
D|-x1-x1-x1-xxxx---x1-x1-x1-xxxx-|
A|-x1-x1-x1-xxxx---x1-x1-x1-xxxx-|
d|-x1-x1-x1-xxxx---x1-x1-x1-xxxx-|

   Brilla por mí

VERSO II:
    D#
D|--1-1-4-1-4-1-4-1-3-1-3-1-3-1-3-1-1-1-4-1-4-1-4-1-3-1-3-1-3-1-3--|
Escúchame solo una?
    G#
G|--1-1-4-1-4-1-4-1-3-1-3-1-3-1-3-1-1-1-4-1-4-1-4-1-3-1-3-1-3-1-3--|
?vez,                             necesito sentirte
    D#
D|--1-1-4-1-4-1-4-1-3-1-3-1-3-1-3-1-1-1-4-1-4-1-4-1-3-1-3-1-3-1-3--|
Solo dejas hullas en?
    G#
G|--1-1-4-1-4-1-4-1-3-1-3-1-3-1-3-1-1-1-4-1-4-1-4-1-3-1-3-1-3-1-3--|
?mi interior

CORO II:
   D#                              G#
G|-x8-x8-x8-xxxx---x8-x8-x8-xxxx-|------------------------------------|
D|-x8-x8-x8-xxxx---x8-x8-x8-xxxx-|-669-9-8-8-666666669-9-8-8-66666666-|
A|-X6-x6-x6-xxxx---x6-x6-x6-xxxx-|-669-9-8-8-666666669-9-8-8-66666666-|
d|-x0-x0-x0-xxxx---x0-x0-x0-xxxx-|-669-9-8-8-666666669-9-8-8-66666666-|

   Solo tú podrás dejarme
   D#
G|-x8-x8-x8-xxxx---x8-x8-x8-xxxx-|
D|-x1-x1-x1-xxxx---x1-x1-x1-xxxx-|
A|-x1-x1-x1-xxxx---x1-x1-x1-xxxx-|
d|-x1-x1-x1-xxxx---x1-x1-x1-xxxx-|

   Solo tú serás mi mundo

PUENTE I:
    C#
A|--4-4-7-4-7-4-7-4-6-4-6-4-6-4-6-4-4-4-7-4-7-4-7-4-6-4-6-4-6-4-6-4-|
Despiértame?
    D#
D|--1-1-4-1-4-1-4-1-3-1-3-1-3-1-3-1-1-1-4-1-4-1-4-1-3-1-3-1-3-1-3--|
?y enséñame en donde estoy
    C#
A|--4-4-7-4-7-4-7-4-6-4-6-4-6-4-6-4-4-4-7-4-7-4-7-4-6-4-6-4-6-4-6-4-|
Existo?
   B
B|-4-4-4-4-6-6-6-6-7-7-7-7-7-7-7-7-4-4-4-4-6-6-6-6-7-7-7-7-7-7-7-7-|
Y otra vez?
  C#
B|-4-4-4-4-6-6-6-6-7-7-7-7-7-7-7-7-4-4-4-4-6-6-6-6-7-7-7-7-7-7-7-7-|
?estoy sentado aquí,              busco tuS?
   B
B|-4-4-4-4-6-6-6-6-7-7-7-7-7-7-7-7-4-4-4-4-6-6-6-6-7-7-7-7-7-7-7-7-|
?manos,                           Que toquen
   C#
B|-4-4-4-4-6-6-6-6-7-7-7-7-7-7-7-7-4-4-4-4-6-6-6-6-7-7-7-7-7-7-7-7-|
mi rostro.

CORO III:
   D#                              G#
G|-x8-x8-x8-xxxx---x8-x8-x8-xxxx-|------------------------------------|
D|-x8-x8-x8-xxxx---x8-x8-x8-xxxx-|-669-9-8-8-666666669-9-8-8-66666666-|
A|-X6-x6-x6-xxxx---x6-x6-x6-xxxx-|-669-9-8-8-666666669-9-8-8-66666666-|
d|-x0-x0-x0-xxxx---x0-x0-x0-xxxx-|-669-9-8-8-666666669-9-8-8-66666666-|

   Brilla eres mi ser

   D#                              G#
G|-x8-x8-x8-xxxx---x8-x8-x8-xxxx-|------------------------------------|
D|-x8-x8-x8-xxxx---x8-x8-x8-xxxx-|-669-9-8-8-666666669-9-8-8-66666666-|
A|-X6-x6-x6-xxxx---x6-x6-x6-xxxx-|-669-9-8-8-666666669-9-8-8-66666666-|
d|-x0-x0-x0-xxxx---x0-x0-x0-xxxx-|-669-9-8-8-666666669-9-8-8-66666666-|

     Brilla por mí tú ves

PUENTE II:
   B               C#              A#              B
G|-----------------6-6-6-6-6-6-6-6---------------------------------|
D|-9-9-9-9-9-9-9-9-6-6-6-6-6-6-6-6-8-8-8-8-8-8-8-8-9-9-9-9-9-9-9-9-|
A|-9-9-9-9-9-9-9-9-4-4-4-4-4-4-4-4-8-8-8-8-8-8-8-8-9-9-9-9-9-9-9-9-|
d|-9-9-9-9-9-9-9-9-----------------8-8-8-8-8-8-8-8-9-9-9-9-9-9-9-9-|
    Tus ojos           me miran     quiero   volverte a ver

   B               C#              A#              B
G|-----------------6-6-6-6-6-6-6-6---------------------------------|
D|-9-9-9-9-9-9-9-9-6-6-6-6-6-6-6-6-8-8-8-8-8-8-8-8-9-9-9-9-9-9-9-9-|
A|-9-9-9-9-9-9-9-9-4-4-4-4-4-4-4-4-8-8-8-8-8-8-8-8-9-9-9-9-9-9-9-9-|
d|-9-9-9-9-9-9-9-9-----------------8-8-8-8-8-8-8-8-9-9-9-9-9-9-9-9-|
       Respiro        tu aliento         déjame       existir

INTERMEDIO:
G|-88-88-88-888888-88-88-888888-|
D|-88-88-88-888888-88-88-888888-| x4
A|-66-66-66-666666-66-66-666666-|

ESTO LO HACE LA SEGUNDA GUITARRA PARA ENTRAR AL SOLO?
B|-666666666666666677777777777777777777777777777777777777777-|

SOLO:
   B               C#              D#              F#
G|-----------------6-6-6-6-6-6-6-6-8-8-8-8-8-8-8-8-----------------|
D|-9-9-9-9-9-9-9-9-6-6-6-6-6-6-6-6-8-8-8-8-8-8-8-8-4-4-4-4-4-4-4-4-|
A|-9-9-9-9-9-9-9-9-4-4-4-4-4-4-4-4-6-6-6-6-6-6-6-6-4-4-4-4-4-4-4-4-|
D|-9-9-9-9-9-9-9-9-----------------0-0-0-0-0-0-0-0-4-4-4-4-4-4-4-4-|

SOLO SEGUNDA GUITARRA
B|-6/7-6/7-6/7-6/7-8-9-|-x3-|-6/5-6/5-6/5-6/5-6/5-|--|X2

MAS O MENOS ASI? SIN PALANCA ¬¬? JIJIJIJI


VERSO:
   B               C#              D#              F#
G|-----------------66-66-66-666666-88-88-88-888888-----------------|
D|-99-99-99-999999-66-66-66-666666-88-88-88-888888-44-44-44-444444-|
A|-99-99-99-999999-44-44-44-444444-66-66-66-666666-44-44-44-444444-|
D|-99-99-99-999999-----------------00-00-00-000000-44-44-44-444444-|
              Mírame                   no tengo vida sin ti.

   B               C#              D#              F#
G|-----------------66-66-66-666666-88-88-88-888888-----------------|
D|-99-99-99-999999-66-66-66-666666-88-88-88-888888-44-44-44-444444-|
A|-99-99-99-999999-44-44-44-444444-66-66-66-666666-44-44-44-444444-|
D|-99-99-99-999999-----------------00-00-00-000000-44-44-44-444444-|
             Arázame                    sabes cómo amarme

VERSO FINAL:
   B                C#             A#              B
G|-----------------6-6-6-6-6-6-6-6---------------------------------|
D|-9-9-9-9-9-9-9-9-6-6-6-6-6-6-6-6-8-8-8-8-8-8-8-8-9-9-9-9-9-9-9-9-|
A|-9-9-9-9-9-9-9-9-4-4-4-4-4-4-4-4-8-8-8-8-8-8-8-8-9-9-9-9-9-9-9-9-|
d|-9-9-9-9-9-9-9-9-----------------8-8-8-8-8-8-8-8-9-9-9-9-9-9-9-9-|
       Todo          gira            siento que sigues en mí

   B                C#             A#              B
G|-----------------6-6-6-6-6-6-6-6---------------------------------|
D|-9-9-9-9-9-9-9-9-6-6-6-6-6-6-6-6-8-8-8-8-8-8-8-8-9-9-9-9-9-9-9-9-|
A|-9-9-9-9-9-9-9-9-4-4-4-4-4-4-4-4-8-8-8-8-8-8-8-8-9-9-9-9-9-9-9-9-|
d|-9-9-9-9-9-9-9-9-----------------8-8-8-8-8-8-8-8-9-9-9-9-9-9-9-9-|
         Quiero     volar               desaparecer de aquí.
OUTRO:

D#
D|-11-4-4-3-3-|
A|-11-4-4-3-3-|
D|-11-4-4-3-3-|

ESPERO LES GUSTE LA TRANSCRIPCION?
DESDE COSTA DE PAJAROS PARA EL MUNDO
IDEC CP PUNTARENAS?
PD: YO TOCO BATERIA EN LA IGLESIA >_<
Suggest correction
Give kudos to tab author, rate the tab!
1 2 3 4 5
comments
print report bad tab
guest
You may want to rate the tab now too:
select rating
Wanna post a correction for this tab? Suggest correction