Oops, an error
Loading. Please wait.

Enamorado De Ti Tab

version 1
version 1

Whole song

230 views 1 this week
no commentswrite comment
1 2 3 4 5
3 more votes to show rating
add to favorites
launch autoscroll
font size
0
reset
how to read this tab
guitar tuner
Autoscroll
slow
fast
+/-
esc
set tempo
stop
Help us to improve Ultimate-Guitar.com Take our survey!
×
Acordes:

   Bbadd9   Gadd9   Ebadd9  Cadd9
e|--------|-------|-------|-------|
B|--------|-------|-------|-------|
G|--------|-------|---10--|---7---|
D|---10---|---7---|---8---|---5---|
A|---8----|---5---|---6---|---3---|
E|---6----|---3---|-------|-------|


     -Intro-

el intro se puede hacer con una o dos guitarras,
utiliza un distor muy bajo para que se entienda mejor.

con una guitarra seria algo asi:


    [P.M.]..................
e|-----------------------------------------|
B|-----------------------------------------|
G|-----------------------------------------|
D|---7-7-7-8-8-8-8-10-10-10-10-12-12-12-12-|
A|-----------------------------------------|
E|---6-6-6-6-6-6-6-6--6--6--6--6--6--6--6--| 4x


     Verso 1

    Bb     [P.M.]..................
e|-----------------------------------------|
B|-----------------------------------------|
G|-----------------------------------------|
D|---7-7-7-8-8-8-8-10-10-10-10-12-12-12-12-|
A|-----------------------------------------|
E|---6-6-6-6-6-6-6-6--6--6--6--6--6--6--6--| 2x

si     las    cosas   fueran   faciles

    Eb     [P.M.]..................
e|-----------------------------------------|
B|-----------------------------------------|
G|-----------------------------------------|
D|---7-7-7-8-8-8-8-10-10-10-10-8-8-8-8-----|
A|---6-6-6-6-6-6-6-6--6--6--6--6-6-6-6-----|
E|-----------------------------------------| 2x

no   tendria   que    llorar   por ti

Bb
tendria que ser asi

Eb
tendria que esperar por ti
C     Eb
y asi sin ti
C     Eb
asi , no es facil estar aqui


     intro 2x


     -coro-

Bbadd9                            Gadd9
y se, que no es imposible amarte asi

                           Bbadd9
eres todo lo que quiero en mi

                         Gadd9
te necesito no puedo evitarlo

                        Eb
todo lo que soy, es por ti,

    C       Eb
por ti, por ti  oh-oh,

    C                         Bb ( con figura 2x)
te dire,   estoy enamorado de ti

                   Eb ( con figura 2x)
estoy enamorado de ti


     -Verso 2-

Bb
todo fue como un sueño

                        Eb
cerre mis ojos y vi tu luz en mi

                           Bb
senti tus manos en mi interior

                                  Eb
en un abrazo que me enloquecio es tu voz

                        C       Eb       C       Eb
que me hace esperar por ti, por ti, por ti, por ti


     -Coro-

Bbadd9                            Gadd9
y se, que no es imposible amarte asi

                           Bbadd9
eres todo lo que quiero en mi

                         Gadd9
te necesito no puedo evitarlo

                         Eb
todo lo que soy, es por ti,

     C       Eb      C
por ti, por ti  por ti, Nooo


     -Solo-

(Acompañaniento del solo Gtr2)

 Bbadd9  Bbadd9  Gadd9  Gadd9  Ebadd9  Cadd9


e|-------------------------------------------------|
B|------3-3----------------------------------------|
G|--------------5-5-----3-3-----2-2-----2-2--------|
D|--0-3-----0-3-----0-3-----0-3-----0-3------------|
A|-------------------------------------------------|
E|-------------------------------------------------|    6x

     El solo lleva un delay muy leve, se repite mas en las notas de
     la 4ta cuerda.  aun sigo trabajando en el solo.


     -Coro-


Bbadd9                            Gadd9
y se, que no es imposible amarte asi

                           Bbadd9
eres todo lo que quiero en mi

                         Gadd9
te necesito no puedo evitarlo

                         Eb
todo lo que soy, es por ti,

    C      Eb
por ti, por ti  oh-oh,

    C                   Bb ( con figura 2x)
te dire,   estoy enamorado de ti

                 Eb ( con figura 2x)
estoy enamorado de ti

        Bb ( con figura 2x)            Bb
oh-oh-oh,  vi tu corazon que me enamoro


NOTAS:

decidi escribir esta tablatura con la afinacion normal, sin embargo,
la afinacion de la guitarra de raul es diferente, en esta cancion se
escucha mejor si se baja medio tono la guitarra, es decir, que quede
Eb,Bb,Gb,Db,Ab,Eb.   para que en las partes del final del coro, el Eb,
suene mas grave, y le de mejor sonido a la rola.
Este es mi primer tab, espero que les sirva y que sigan apoyando
a musicos cristianos,  DLB

Voten xD
                            Escriban sus coments  ;)
Suggest correction
Give kudos to tab author, rate the tab!
1 2 3 4 5
comments
print report bad tab
guest
You may want to rate the tab now too:
select rating
Wanna post a correction for this tab? Suggest correction