Oops, an error
Loading. Please wait.

Enamorado De Ti Tab

version 2
version 2

Whole song

104 views 1 this week
no commentswrite comment
1 2 3 4 5
3 more votes to show rating
add to favorites
launch autoscroll
font size
0
reset
how to read this tab
guitar tuner
Autoscroll
slow
fast
+/-
esc
set tempo
stop
Help us to improve Ultimate-Guitar.com Take our survey!
×
ke onda esta es mi primera transcripción espero les guste y le sirva.

estos son los acordes ke se utilizaran: son quintas(solo se tokaran
                                      las cuerdas     presionadas)
     Bb       G       Eb      C
e|--------|-------|-------|-------|
B|--------|-------|-------|-------|
G|--------|-------|---8---|---5---|
D|---8----|---5---|---8---|---5---|
A|---8----|---5---|---6---|---3---|
E|---6----|---3---|-------|-------|

INTRO:serepite
4veces y tienes ke dar el tiempo acada uno delos cambios
      **fig. del intro.**          "importante"
e|--------------------------------las 3 cuerdas(e,D,A,)
B|--------------------------------se tocaran pal-mute. y * sig. ke la
G|----7---8---10------12----------cuerda A se toca libre le tienes ke
D|---6---7---9-----11-------------dar el tiempo acada uno delos cambios
A|********************************
E|--------------------------------

            ****verso I*****
e|--------------------------------
B|--------------------------------
G|----7---8---10------12----------
D|---6---7---9-----11-------------  **la fig.1. se repite 2 veces**
A|********************************  y le tienes ke dar el tiempo a
E|--------------------------------   cada uno de los cambios
si     las    cosas   fueran   fáciles

         ** fig.2**
e|--------------------------------
B|--------------------------------
G|----7---8---10------8-----------
D|---6---7---9-----7-------------- **la fig.2**. se repite 2 veces**
A|******************************** y le tienes ke dar el tiempo a
E|-------------------------------- cada uno de los cambios

no   tendria   que    llorar   por ti

e|--------------------------------
B|--------------------------------
G|----7---8---10------12----------
D|---6---7---9-----11-------------  **la fig. se repite 2 veces**
A|********************************  y le tienes ke dar el tiempo a
E|--------------------------------  cada uno de los cambios
tendría   que    ser    así

e|--------------------------------
B|--------------------------------
G|----7---8---10------8-----------
D|---6---7---9-----7-------------- **la fig.1. se repite 2 veces**
A|******************************** y le tienes ke dar el tiempo a
E|-------------------------------- cada uno de los cambios
tendría  que   esperar  por   ti

C     Eb
y asi sin ti            *estas 4 ultimas notas se tocan el pal-mute
C     Eb
asi , no es facil estar aquí


          ****CORO****

Bb                           G
y se, que no es imposible amarte asi

                           Bb
eres todo lo que quiero en mi

                         G
te necesito no puedo evitarlo

                        Eb
todo lo que soy, es por ti,

    C       Eb
por ti, por ti  oh-oh,

    C                         Bb ( con figura.1. 2veces)
te dire,   estoy enamorado de ti

                   Eb ( **la fig.2** 2 veces)
estoy enamorado de ti


****************versoII************************

e|--------------------------------
B|--------------------------------
G|----7---8---10------12----------
D|---6---7---9-----11-------------  **la fig.1. se repite una vez**
A|********************************  y le tienes ke dar el tiempo a
E|--------------------------------   cada uno de los cambios
todo    fue    como  un    sueño

e|--------------------------------
B|--------------------------------
G|----7---8---10------12----------
D|---6---7---9-----11-------------  **la fig.1. se repite 2 veces**
A|********************************  y le tienes ke dar el tiempo a
E|--------------------------------   cada uno de los cambios
cerre mis ojos y vi tu luz en mi

e|--------------------------------
B|--------------------------------
G|----7---8---10------8-----------
D|---6---7---9-----7-------------- **la fig.1. se repite 1 veces**
A|******************************** y le tienes ke dar el tiempo a
E|--------------------------------  cada uno de los cambios
sentí  tus   manos   en   mi   interior

e|--------------------------------
B|--------------------------------   **la fig.1. se repite 2 veces**
G|----7---8---10------12----------   la primera vez es sin voz y la
D|---6---7---9-----11------------- otra con voz tienes ke dar el tiempo
A|********************************   a cada uno de los cambios
E|--------------------------------
que me abrazo que me enloquecio es tu voz

e|--------------------------------
B|--------------------------------   **la fig.1. se repite 2 veces**
G|----7---8---10------8-----------    le tienes ke dar el tiempo a
D|---6---7---9-----7--------------    cada uno de los cambios
A|********************************
E|--------------------------------
                        C       Eb       C       Eb
que me hace esperar por ti, por ti, por ti, por ti

Luego se repite el ****CORO*****
Y después el acompañamiento del solo es:

 Bb  Bb  G   G  Eb  C

y el final se repite  el intro como 5 o 6 veces.

e|--------------------------------
B|--------------------------------
G|----7---8---10------12----------
D|---6---7---9-----11-------------
A|********************************
E|--------------------------------


esto es todo espero les sirva mucho DLB a todos
saludos ala iglesia Emanuel de campeche en especial a CICLO ZERO.

te amo jahsel tkm
Suggest correction
Give kudos to tab author, rate the tab!
1 2 3 4 5
comments
print report bad tab
guest
You may want to rate the tab now too:
select rating
Wanna post a correction for this tab? Suggest correction