Oops, an error
Loading. Please wait.

Fuera De Control Tab

266 views 1 this week
no commentswrite comment
1 2 3 4 5
3 more votes to show rating
add to favorites
launch autoscroll
font size
0
reset
how to read this tab
guitar tuner
×
Best way to learn
"Fuera De Control"
Autoscroll
slow
fast
+/-
esc
set tempo
stop
hoOla amiwozZ pzZ aQ! l3zZ dejO esta rOla...
ESPERO QUE LES GUSTE...BENDICIONES....

INTRO:

E)-----------------------------------------
B)-----------------------------------------
G)------8-8-------------8-8----------------
D)--7-7----8-8-8-8/9-9-----8-8-8-8/9--8-7--
A)-----------------------------------------
E)-----------------------------------------

la sewunda guitarra hace esto cuando termina cada intro

E)--5---------------------------------------
B)--5---------------------------------------
G)--5---------------------------------------
D)--9---------------------------------------
A)--7---------------------------------------
E)--5---------------------------------------

Y CAES EN C


C                        Am
Si tan solo imaginarte a ti
                         Em
no me cuesta entender tu amor
                            Fm
Tantas cosas que haces tú en mí

---INTRO---
---Fuera de control---

SE REPITEN LOS ACORDES:

Por favor ya no sigas en silencio todo esto me confunde
Si no  escucho más tu voz.

EN ESTA PARTE SE RASGEA HACIA ABAJO

Fm       Gm       Am       Gm
Mira muy bien yo estoy siempre por ti
Fm       Gm       Am     Gm
Lee mis labios escucha te amo

C       Am           Em   Fm
Quiero pasar toda mi vida junto a ti
C        Am           Em
siempre soñar e imaginar
            Fm
Que esto nunca acabara.

SOLO:

E)-------------12(7veces)------------12(7veces)
B)--10(8veces)-----------12(8veces)

E)------------12(7 veces)-12--12--12-
B)12-13(8veces)------------10--10--10-

EN ESTA PARTE SE REPITE TODO:

Mira muy bien yo estoy aquí siempre por ti siempre por ti
Mira muy bien y lee mis labios y escucha te amo
Fuera de control

BUENO ESPERO Q LES AYA GUSTADO CUALQIER DUDA
MI CORREO ES: pkzo_@
BENDICIONES!!!
Suggest correction
Give kudos to tab author, rate the tab!
1 2 3 4 5
comments
print report bad tab
guest
You may want to rate the tab now too:
select rating
Wanna post a correction for this tab? Suggest correction