Oops, an error
Loading. Please wait.

I Will Wait Tab

115 views 1 this week
no commentswrite comment
1 2 3 4 5
3 more votes to show rating
add to favorites
launch autoscroll
font size
0
reset
how to read this tab
guitar tuner
×
Best way to learn
"I Will Wait"
Autoscroll
slow
fast
+/-
esc
set tempo
stop
Bueno aqui les dejo una nueva TAB espero y les sirva..
el solo se oye bien pero pues ay que hacerlo
con "estilo" para poder hallarle algo de ritmo
bueno espero y les guste DLB

E--6-6---6-6-6---6-6-6---6--6--6-|
A--8-8---8-8-8---8-8-8---8--8--8-|
D--8-8---8-8-8---8-8-8---8--8--8-|
G--x-x---x-x-x---x-x-x---x--x--x-|
B--x-x---x-x-x---x-x-x---x--x--x-|
E--x-x---x-x-x---x-x-x---x--x--x-|

E--2-2---2-2-2---x-x-x---x--x--x-|
A--4-4---4-4-4---6-6-6---6--6--6-|
D--4-4---4-4-4---8-8-8---8--8--8-| x2
G--x-x---x-x-x---8-8-8---8--8--8-|
B--x-x---x-x-x---x-x-x---x--x--x-|
E--x-x---x-x-x---x-x-x---x--x--x-|

E--2-2---2-2-2---x----|
A--4-4---4-4-4---6~~~-|
D--4-4---4-4-4---8~~~-|  (Esto se hace
G--x-x---x-x-x---8~~~-|  el final de la 2 vez)
B--x-x---x-x-x---x----|
E--x-x---x-x-x---x----|


Verso 1

It?s always...

PM.............................(LOS NUM. ENTRE()se tocan normal sin PM)
D-------------------------------------------|
G--3-3-3-3-3-3-3-3-----3-3---3-3-----3-3----|
B-2-2-2-2-2-2-2-2-------2-----2--(6)--2-(4)-|
E------------------(6)----(4)---------------|
PM.................  (Aquí se dejan vibrar las cuerdas)
D---4-4-4-4-4-4-4-4-|---1-1-1-1-1-1-1-1-|
G--3-3-3-3-3-3-3-3--|--3-3-3-3----------|
B-------------------|----------1-1-2-2--|
E-------------------|-------------------|

Puente
Guitar 1
   A#          C# C      A#      F#           D#
E--6-6---6-6---9--8--6---6-6---6-2~~--2-2---2----------|
A--8-8---8-8---11-10-8---8-8---8-4~~--4-4---4----------|
D---------------------------------------------6~~--6-6-|
G---------------------------------------------8~~--8-8-| x2
B------------------------------------------------------|
E------------------------------------------------------|

Guitar 2

E-6-6-9-6-9--6-6-9-6-9----6-9-6-9--6-6-9-6-9--|
A---------------------------------------------|
D--------8----------8----------8----------8---|
G---------------------------------------------|
B---------------------------------------------|
E---------------------------------------------|

E-6-9-6-9--6-6-9-6-9----6-9-6-9--6-6-|
A------------------------------------|
D------8----------8----------8-------|
G------------------------------------|
B------------------------------------|
E------------------------------------|

E--6-9-------------9-----9-8---9-8-6--|
A------6-----9-8-6---8-6-----6--------|
D--------8-6--------------------------|
G-------------------------------------|
B-------------------------------------|
E-------------------------------------|

E-6-6-9-6-9--6-6-9-6-9----6-9-6-9--6-6-9-6-9--|
A---------------------------------------------|
D--------8----------8----------8----------8---|
G---------------------------------------------|
B---------------------------------------------|
E---------------------------------------------|

E-6-9-6-9--6-6-9-6-9----6-9-6-9--6-6~~-|
A--------------------------------------|
D------8----------8----------8---------|
G--------------------------------------|
B--------------------------------------|
E--------------------------------------|


Verso 2

No quiero soñar y despertar...

PM.............................(LOS NUM. ENTRE()se tocan normal sin PM)
D-------------------------------------------|
G--3-3-3-3-3-3-3-3-----3-3---3-3-----3-3----|
B-2-2-2-2-2-2-2-2-------2-----2--(6)--2-(4)-|
E------------------(6)----(4)---------------|
PM.................  (Aquí se dejan vibrar las cuerdas)
D---4-4-4-4-4-4-4-4-|---1-1-1-1-1-1-1-1-|
G--3-3-3-3-3-3-3-3--|--3-3-3-3----------|
B-------------------|----------1-1-2-2--|
E-------------------|-------------------|

(Se repite en la sig. Estrofa)

Coro

A#m
Tus sueños están dentro de mi
              F#  D#
I dream for you
A#m
Todo se que me lleva a ti
            F#  D#
I fly for you
A#m
Dime si todo esta bien
             F#  D#
I wait for you


Solo

G-------------------------------|
B-6-6-6-7-7-7-7-9-9-9-9-7-7-7-7-|
E-------------------------------|

G-------------------------------------|
B-6-6-6-7-7-7s14-14-14-14-13-13-13-13-|
E-------------------------------------|

G-------------------------------|
B-6-6-6-7-7-7-7-9-9-9-9-7-7-7-7-|
E-------------------------------|

G-----------|
B-9b11-9b11-|
E-6------6--|

G---------------------------------------------------------------------|
B--9b11-9b11-9b11-----9b11-9b11-9b11-----9b11-9b11-9b11-----9b11-9b11-|
E--6----6----6--------6----6----6--------6----6----6--------6----6----|


G-7v-7v-7v-7p5-7-----------------------|----------------------------------|
B----------------s12-12-15-13-12h13p12-|-9-10-9-7-9-7-5-7-5-3-5-3-2-3-2-0-|
E--------------------------------------|----------------------------------|

E-14-11-12-14----------------------------|
A-------------11-12-14-------------------|
D----------------------11-12-14----------|
G-------------------------------11-12-14-|
B----------------------------------------|
E----------------------------------------|

E-----------------------------------------------------|
A-----------------------------------------------------|
D-11-12-14--------------------------------------------|
G----------11-12-14-----------------------------------|
B-------------------11-13-14-----------11-13-14-------|
E----------------------------11-12-14-----------11-13-|

G--------------|
B-14b16-14b116-|
E-11----11-----|

G---------------------|---|-------------|
B-14b16-14b116-14b116-|x 2|-14b16-14b16-|
E-11----11-----11-----|---|-11----11----|


FINAL

E--6-6---6-6---6-6---6-6---6~~-|
A--8-8---8-8---8-8---8-8---8~~-|
D--8-8---8-8---8-8---8-8---8~~-|
G--x-x---x-x---x-x---x-x---x---|
B--x-x---x-x---x-x---x-x---x---|
E--x-x---x-x---x-x---x-x---x---|
   I    WILL   WAIT  FOR  YOU
Suggest correction
Give kudos to tab author, rate the tab!
1 2 3 4 5
comments
print report bad tab
guest
You may want to rate the tab now too:
select rating
Wanna post a correction for this tab? Suggest correction