Oops, an error
Loading. Please wait.

Intencity Bass

29 views 1 this week
no commentswrite comment
1 2 3 4 5
3 more votes to show rating
add to favorites
launch autoscroll
font size
0
reset
guitar tuner
×
Best way to learn
"Intencity"
Autoscroll
slow
fast
+/-
esc
set tempo
stop
Intensity (Strike 3)

Intro (tambien precoro)
E---1---1?1?1?1?1?1?1?1?1?1?1?1?1?1?1?1?1?1-------------
A-------------------------------------------------------
D-------------------------------------------------------
G-------------------------------------------------------

E--------------1-------------1-------------1-------------1
A?4-4-4---4---4-4-4--4?--4-4-4--4---4?4-4- 4--(x 2)
D-------------------------------------------------------------
G-------------------------------------------------------------

estrofa
E--------------------------------------------------------
A-4-4-4--4-4-4--4-4-4--4-4-4-----------------(x4)
D--------------------------------------------------------
G--------------------------------------------------------

precoro

coro
E-7-7-7-7----------1-1-1-1--7-7-7-7------------------1-1-1-1--5-5-5-5--
A----------3-3-3-3------------------3-3-3-3--6-6-6-6-------------------
D----------------------------------------------------------------------
G----------------------------------------------------------------------
   De tan solo.....                 Vas tan solo?
E-7-7-7-7----------1-1-1-1--7-7-7-7------------------1-1-1-1--5-5-5-5--
A----------3-3-3-3------------------3-3-3-3--6-6-6-6-------------------
D----------------------------------------------------------------------
G----------------------------------------------------------------------
   Es tan fácil....                 De tan solo?.

Intro-estrofa-precoro

Solo (traten de hacerlo con corcheas)
E-1?1--1--h2?2?-1?1-1---h2-2-?1-1----h3?3--6?h4--3---h4--h6--1--
A---------------------------------------------------------(x 8)
D---------------------------------------------------------
G---------------------------------------------------------

E-------------------------------------------------------------
A-8-8--8--h9-9--8?8-8?--h9-9?-8-8---h10-10--13-h11--10--h11--h13--8-(x 4)
D-------------------------------------------------------------
G-------------------------------------------------------------

precoro-coro

E-7-7-7-7--1-1-1-1--5-5-5-5---------7-7-7-7---------1-1-1-1--5-5-5-5--
A---?-----------------------3-3-3-3---------6-6-6-6-------------------
D---------------------------------------------------------------------
G---------------------------------------------------------------------
  Veo que yo...     Cuando?.        Hay algo?.       Quiero mas?

Primera parte del Intro y luego

Final
E---------------------4--6--8-----------4--6--8----------- (x 2)
A-4-4-4------8--6--4------------8--6--4-------------------
D---------------------------------------------------------
G---------------------------------------------------------
Suggest correction
Give kudos to tab author, rate the tab!
1 2 3 4 5
comments
print report bad tab
guest
You may want to rate the tab now too:
select rating
Wanna post a correction for this tab? Suggest correction