Oops, an error
Loading. Please wait.

Juntos Los Dos Tab

version 1
version 1

Whole song

64 views 3 this week
no commentswrite comment
1 2 3 4 5
3 more votes to show rating
add to favorites
launch autoscroll
font size
0
reset
how to read this tab
guitar tuner
Autoscroll
slow
fast
+/-
esc
set tempo
stop
Help us to improve Ultimate-Guitar.com Take our survey!
×
LA AFINACION DE LA GUITARRA ES DROP
(SEXTA CUERDA AFINADA EN ?D? o ?Re?).

INTRO...
E||--------------------------|--------------------------|
B||--------------------------|--------------------------|
G||--------------0-----------|--------------0-----------|
D||--------6--------------6--|--------6--------------6--|
A||--4--4-----4--------4-----|--4--4-----4--------4-----|
D||--------------------------|--------------------------|

E||--------------------------|--------------------------|
B||--------------------------|--------------------------|
G||--------------0-----------|--------------0-----------|
D||--------6--------------6--|--------6--------------6--|
A||--3--3-----3--------3-----|-----------3--------3-----|
D||--------------------------|--3--3--------------------|
SE REPITE 3 VECES

LA CUARTA VA ASI
E||--------------------------|---------------------------|
B||--------------------------|---------------------------|
G||--------------0-----------|--------------0------------|
D||--------6--------------6--|--------6--------------6---|
A||--6--6-----6--------6-----|--6--6-----6--------6------|
D||--------------------------|---------------------------|

E||--------------------------|
B||--------------------------|
G||--------------0-----------|
D||--------6--------------6--|
A||--6--6-----6--------6-----|
D||--------------------------|

E||-------------|
B||-------------|
G||--5----------|
D||-----6-------|
A||--------4----|
D||-------------|

AQUI COMIENZA.....
                    LA TARDE ESTA SIN TI...
E||--------------------------|--------------------------|
B||--------------------------|--------------------------|
G||--------------0-----------|--------------0-----------|
D||--------6--------------6--|--------6--------------6--|
A||--4--4-----4--------4-----|--4--4-----4--------4-----|
D||--------------------------|--------------------------|
                    QUE PUEDO IMAGINAR...
E||--------------------------|--------------------------|
B||--------------------------|--------------------------|
G||--------------0-----------|--------------0-----------|
D||--------6--------------6--|--------6--------------6--|
A||--3--3-----3--------3-----|-----------3--------3-----|
D||--------------------------|--3--3--------------------|
                     TE NECESITO AQUI...
E||--------------------------|--------------------------|
B||--------------------------|--------------------------|
G||--------------0-----------|--------------0-----------|
D||--------6--------------6--|--------6--------------6--|
A||--4--4-----4--------4-----|--4--4-----4--------4-----|
D||--------------------------|--------------------------|
                     SOLO PUEDO SOÑAR...
E||--------------------------|--------------------------|
B||--------------------------|--------------------------|
G||--------------0-----------|--------------0-----------|
D||--------6--------------6--|--------6--------------6--|
A||--3--3-----3--------3-----|-----------3--------3-----|
D||--------------------------|--3--3--------------------|
                      TOMO TUS MANOS...
E||--------------------------|--------------------------|
B||--------------------------|--------------------------|
G||--------------0-----------|--------------0-----------|
D||--------6--------------6--|--------6--------------6--|
A||--4--4-----4--------4-----|--4--4-----4--------4-----|
D||--------------------------|--------------------------|
                      Y MIRO TUS OJOS...
E||--------------------------|--------------------------|
B||--------------------------|--------------------------|
G||--------------0-----------|--------------0-----------|
D||--------6--------------6--|--------6--------------6--|
A||--3--3-----3--------3-----|-----------3--------3-----|
D||--------------------------|--3--3--------------------|
                     DECIRTE Q TE EXTRAÑO...
E||--------------------------|--------------------------|
B||--------------------------|--------------------------|
G||--------------0-----------|--------------0-----------|
D||--------6--------------6--|--------6--------------6--|
A||--4--4-----4--------4-----|--4--4-----4--------4-----|
D||--------------------------|--------------------------|
                Y QUE TE NECESITO JUNTO A MI...
E||--------------------------|--------------------------|
B||--------------------------|--------------------------|
G||--------------0-----------|--------------0-----------|
D||--------6--------------6--|--------6--------------6--|
A||--3--3-----3--------3-----|-----------3--------3-----|
D||--------------------------|--3--3--------------------|
                                            EEIIEEE.....
E||--------------------------|--------------------------|
B||--------------------------|--------------------------|
G||--------------0-----------|--------------0-----------|
D||--------6--------------6--|--------6--------------6--|
A||--4--4-----4--------4-----|--4--4-----4--------4-----|
D||--------------------------|--------------------------|

E||--------------------------|--------------------------|
B||--------------------------|--------------------------|
G||--------------0-----------|--------------0-----------|
D||--------6--------------6--|--------6--------------6--|
A||--3--3-----3--------3-----|-----------3--------3-----|
D||--------------------------|--3--3--------------------|

E||--------------------------|--------------------------|
B||--------------------------|--------------------------|
G||--------------0-----------|--------------0-----------|
D||--------6--------------6--|--------6--------------6--|
A||--4--4-----4--------4-----|--4--4-----4--------4-----|
D||--------------------------|--------------------------|

E||--------------------------|--------------------------|
B||--------------------------|--------------------------|
G||--------------0-----------|--------------0-----------|
D||--------6--------------6--|--------6--------------6--|
A||--3--3-----3--------3-----|-----------3--------3-----|
D||--------------------------|--3--3--------------------|
                        NO PUEDO MAS...
E||--------------------------|--------------------------|
B||--------------------------|--------------------------|
G||--------------0-----------|--------------0-----------|
D||--------6--------------6--|--------6--------------6--|
A||--4--4-----4--------4-----|--4--4-----4--------4-----|
D||--------------------------|--------------------------|
                       QUISIERA VOLAR...
E||--------------------------|--------------------------|
B||--------------------------|--------------------------|
G||--------------0-----------|--------------0-----------|
D||--------6--------------6--|--------6--------------6--|
A||--3--3-----3--------3-----|-----------3--------3-----|
D||--------------------------|--3--3--------------------|
                    Y LLEVARTE A UN LUGAR...
E||--------------------------|--------------------------|
B||--------------------------|--------------------------|
G||--------------0-----------|--------------0-----------|
D||--------6--------------6--|--------6--------------6--|
A||--4--4-----4--------4-----|--4--4-----4--------4-----|
D||--------------------------|--------------------------|
                    DONDE NUNCA TU SABRAS...
E||--------------------------|--------------------------|
B||--------------------------|--------------------------|
G||--------------0-----------|--------------0-----------|
D||--------6--------------6--|--------6--------------6--|
A||--3--3-----3--------3-----|-----------3--------3-----|
D||--------------------------|--3--3--------------------|

E||--------------------------|---------------------------|
B||--------------------------|---------------------------|
G||--------------0-----------|--------------0------------|
D||--------6--------------6--|--------6--------------6---|
A||--6--6-----6--------6-----|--6--6-----6--------6------|
D||--------------------------|---------------------------|

  Y ESTAR...                         JUNTOS LOS DOS..
E||--------------------|---------------------------|
B||--------------------|---------------------------|
G||--------------------|---------------------------|
D||-3-3-3-3-3-3-3-3-3--|--3----3--3----3----3--3---|
A||-3-3-3-3-3-3-3-3-3--|--3----3--3----3----3--3---|
D||-3-3-3-3-3-3-3-3-3--|--3----3--3----3----3--3---|
           JUNTOS LOS DOS....
E||--------------------------|
B||--------------------------|
G||--6----6--6----6----6--6--|
D||--6----6--6----6----6--6--|
A||--4----4--4----4----4--4--|
D||--------------------------|
                    YEHHIEE...
E||--------------------------|
B||--------------------------|
G||--------------------------|
D||--3----3--3----3----3--3--|
A||--3----3--3----3----3--3--|
D||--3----3--3----3----3--3--|
                        OOO...
E||--------------------------|
B||--------------------------|
G||--6----6--6----6----6--6--|
D||--6----6--6----6----6--6--|
A||--4----4--4----4----4--4--|
D||--------------------------|
                     YEEIEE...
E||--------------------------|
B||--------------------------|
G||--------------------------|
D||--3----3--3----3----3--3--|
A||--3----3--3----3----3--3--|
D||--3----3--3----3----3--3--|
                       OUOO...
E||--------------------------|
B||--------------------------|
G||--6----6--6----6----6--6--|
D||--6----6--6----6----6--6--|
A||--4----4--4----4----4--4--|
D||--------------------------|
                      YEIEE...
E||--------------------------|
B||--------------------------|
G||--------------------------|
D||--3----3--3----3----3--3--|
A||--3----3--3----3----3--3--|
D||--3----3--3----3----3--3--|

(ES UN PEQUEÑO SOLO...)
E||---------------------|----------|
B||--9--11--8--9---6----|----------|
G||---------------8-----|--5-------|
D||---------------------|----6-----|
A||---------------------|------4---|
D||---------------------|----------|

VUELVE A INICIAR LA CANCION EL ARPEGIO
 ES EL MISMO QUE EL DE ARRIBA...

*EN LA SEGUNDA PARTE SIGUE UN RIFF
PERO NO LO HE SACADO MUY BIEN u_u

BENDICIONES DESDE TABASCO.. IGLESIA MCI...
xD go to rock!!!.....
Suggest correction
Give kudos to tab author, rate the tab!
1 2 3 4 5
comments
print report bad tab
guest
You may want to rate the tab now too:
select rating
Wanna post a correction for this tab? Suggest correction