Oops, an error
Loading. Please wait.

Juntos Los Dos Tab

version 2
version 2

Whole song

58 views 1 this week
no commentswrite comment
1 2 3 4 5
3 more votes to show rating
add to favorites
launch autoscroll
font size
0
reset
how to read this tab
guitar tuner
Autoscroll
slow
fast
+/-
esc
set tempo
stop
Help us to improve Ultimate-Guitar.com Take our survey!
×
ESTE TAB FUE SACADO Y ELABORADO POR HENRY MONTERO- GUITARRISTA --- sep/2012
DESDE ESCARCEGA CAMPECHE MEXICO
LA DEDICO A LA BANDA DE LA IGLESIA LA MIES A.D.
PASTOR MARTIN SOLER RUIZ

*******************************************************************************

?ME FUE MUY FACIL SACAR ESTA CANCION SOLO TUVE QUE DESCUBRIR LA AFINACION
DE CADA CUERDA Y ENCONTRE LA FORMA ORIGINAL COMO LA TOCA RAUL?ESTA:?


PRIMERA  ---]  X|---ESTA--CUERDA-ES--OPCIONAL-YO--AFINO-EN--F--|
SEGUNDA  ---]  C|----------------------------------------------|
TERCERA  ---]  G|----------------------------------------------|
CUARTA   ---] Eb|----------------------------------------------|
QUINTA   ---] A#|----------------------------------------------|
SEXTA    ---]  F|----------------------------------------------|

NOTA:  LA AFINACION ES AL RANGO 440 [estándar] EN SU AFINADOR .
       SELECCIONEN LA PASTILLA DEL PUENTE ; TOQUEN EL ARPEGIO CON PLUMILLA
       SUAVE Y AL EXTREMO DE LAS CUERDAS, ES DECIR, LO MAS PEGADO AL PUENTE,
       SUMAMENTE PEGADO.  LAS POCICIONES DE LOS RIFFS ESTAN AL FINAL

*******************************************************************************


[INTRO:]


         (Este es el ARPEGIO PRINCIPAL. Se toca a guitarra
          limpia con ciertos tintes de reverb, chorus y delay)

       C#
 F|||-------------------------------------------------
 C|||-------------------------------------------------
 G|||-------------0----------------------0------------
Eb|||---------------0----------------------0----------
A#|||-------10---------10-----------10--------10------
 F|||---8-8----8------------8-8-8------8--------------

        C                  F
     --------------------------------------------------||| En el intro,
     --------------------------------------------------||| éste arpegio
     -------------0------------------0-----------------||| principal se
     ---------------0------------------0---------------||| toca tres veces
     -------10--------10--------10-------10------------||| después entra
     ---7-7----7-----------0-0-----0-------------------||| lo siguiente:


    D#
1|-----------------------------------------------------------------------|
2|-----------------------------------------------------------------------|
3|---------------0--------------------0--------------------0-------------|
4|-----------------0--------------------0--------------------0-----------|
5|--------10---------10---------10--------10---------10--------10--------|
6|--10-10----10-----------10-10----10----------10-10----10---------10-10-|


1|-------------------| aquí se
2|---0---------------| empieza a tocar
3|------0------------| el arpegio principal
4|---------0---------| con el cual,
5|------------10-----| se acompañan
6|---------------8---| las estrofas


[ESTROFA 1:]

C#                     C        F          C#
     La tarde está sin ti, qué puedo imaginar
              C     F          C#
Te necesito aquí, solo puedo soñar
            C     F         C#
Tomo tus manos y miro tus ojos
                  C               F               C#
Decirte que te extraño y que, te necesito junto a miiiii
      C     F
Yeee Yeeeeeehh

      C#
 F|-------------------------------------------------
 C|-------------------------------------------------
 G|-------------0----------------------0------------
Eb|---------------0----------------------0----------
A#|-------10---------10-----------10--------10------
 F|---8-8----8------------8-8-8------8--------------

        C                  F
     --------------------------------------------------|
     --------------------------------------------------|
     -------------0------------------O-----------------|
     ---------------0------------------0---------------|
     -------10--------10--------10-------10------------|
     ---7-7----7-----------0-0-----0-------------------|


[PRE-CORO:]

C#              C       F       C#
      No puedo más, quisiera volar
                  C            F        D#
Y llevarte a un lugar donde nunca tu sabrás

    (D#)
1|---------------------------------------------------|
2|---------------------------------------------------|
3|---------------0--------------------0--------------|
4|-----------------0--------------------0------------|
5|--------10---------10---------10--------10---------|
6|--10-10----10-----------10-10----10----------10----|


[CORO:] (se acompaña con distorsión pesada)

    D#
1|------------------------------------|ANTES
2|--Solo-esto-se-toca-con-palm-mute---|DE
3|------------------------------------|ENTRAR
4|--0--0--0--0--0--0--0--0------------|AL TONO
5|--10-10-10-10-10-10-10-10-----------|DE c#
6|--10-10-10-10-10-10-10-10-----------|

                   C#       F
Y estar juntos los dooooooooos
           C#       F    C#     F
juntos los dooooooooos yei yeieeh
C#               F
ohhhh nooooo yei yeieeeeh
C#                F    (queda sonando el acorde)
uohhhh nooooo yei yeieeh iyei iei


[PUENTE:] (armónicos naturales creo que los hace el bajo pero
            aquí se los tabule para guitarra. Les recomiendo configurar
            aparte un efecto opaco para tocarlos en la guitarra)

1|-----------------------------------------|------armónicos-----------|
2|-----------espacio-----------------------|---8--10--7-8-------------|
3|---------de--tiempo----------------------|---------------8--10------|
4|------------dela-------------------------|--------------------------|
5|-----------bateria-----------------------|--------------------------|
6|-----------------------------------------|--------------------------|

1|-------------------| aquí entra
2|---0---------------|"pegado"
3|------0------------|el arpegio ----------|
4|---------0---------|principal            |
5|------------10-----|de la rola,          |
6|---------------8---|(abajo)              v

             C#
 F|-------------------------------------------------
 C|-------------------------------------------------
 G|-------------0----------------------0------------
Eb|---------------0----------------------0----------
A#|-------10---------10-----------10--------10------
 F|---8-8----8------------8-8-8------8--------------

        C                  F
     --------------------------------------------------|
     --------------------------------------------------|
     -------------0------------------O-----------------|
     ---------------0------------------0---------------|
     -------10--------10--------10-------10------------|
     ---7-7----7-----------0-0-----0-------------------|


[ESTROFA 2:]

C#                 C           F             C#
     Te miras y dices: ¿que es lo que pasa aquí?
             C         F            C#
Sonríes de frente ocultando lo que hay
             C         F          C#
Y mira la gente que no eres la verdad
              C           F        C#
Y quisieras cambiar tu sonrisa y decir


[PRE-CORO:]

                C       F       C#
      No puedo más, quisiera volar
                  C            F        D#
Y llevarte a un lugar donde nunca tu sabrás

    (D#)
1|---------------------------------------------------|
2|---------------------------------------------------|
3|---------------0--------------------0--------------|
4|-----------------0--------------------0------------|
5|--------10---------10---------10--------10---------|
6|--10-10----10-----------10-10----10----------10----|


[CORO:] (se acompaña con distorsión pesada)

    D#
1|------------------------------------|ANTES
2|--Solo-esto-se-toca-con-palm-mute---|DE
3|------------------------------------|ENTRAR
4|--0--0--0--0--0--0--0--0------------|AL TONO
5|--10-10-10-10-10-10-10-10-----------|DE c#
6|--10-10-10-10-10-10-10-10-----------|

                   C#       F
Y estar juntos los dooooooooos
           C#       F    C#     F
juntos los dooooooooos yei yeieeh
C#               F
ohhhh nooooo yei yeieeh
C#                F
uohhhh nooooo yei yeieeh


[SOLO:] (se hace con la misma guitarra afinada tal como se indico.
         no intenten hacerlo con la afinacion standard. no sonara bien
         agreguen tantito phaser, flanger con una pizca de autowah, etc)


   C#                                    F
1|-----------------------------------------------------------------------|
2|-----------------------------------------------------------------------|
3|-----------------------------------------------------------------------|
4|-----------------------------------------------------------------------|
5|-----------------------------------------------------------------------|
6|-7-8-8-10-10-12-12-12-12---12-12-15-15-14-14--15-15-14-14-10-10-12-12--|

   C#                                    F
1|-----------------------------------------------------------------------|
2|-----------------------------------------------------------------------|
3|-----------------------------------------------------------------------|
4|-----------------------------------------------------------------------|
5|-----------------------------------------------------------------------|
6|-7-8-8-10-10-12-12-12-12---12-12-15-15-14-14--15-15-14-14-10-10-12-12--|

   C#                                    F
1|-----------------------------------------------------------------------|
2|-----------------------------------------------------------------------|
3|-----------------------------------------------------------------------|
4|-----------------------------------------------------------------------|
5|-----------------------------------------------------------------------|
6|-7-8-8-10-10-12-12-12-12---12-12-15-15-14-14--15-15-14-14-10-10-12-12--|

   D#
1|---------------------------------------|
2|---------------------------------------|
3|---------------------------------------|
4|---------------------------------------|
5|---------------------------------------|
6|--10-10-12-12-10-10------12-12-10-10---|


[CORO:] (se acompaña con distorsión pesada)

    D#
1|------------------------------------|ANTES
2|--Solo-esto-se-toca-con-palm-mute---|DE
3|------------------------------------|ENTRAR
4|--0--0--0--0--0--0--0--0------------|AL TONO
5|--10-10-10-10-10-10-10-10-----------|DE c#
6|--10-10-10-10-10-10-10-10-----------|

                   C#       F
Y estar juntos los dooooooooos
           C#       F    C#     F
juntos los dooooooooos yei yeieeh
C#               F
ohhhh nooooo yei yeieeh
C#                F
uohhhh nooooo yei yeieeh
    C# ~~~~~~ (dejas sonando el distor)
uuuuuuouuu

[FIN]

******************************************************************************


POSICIONES DE LOS RIFFS EMPLEADOS EN EL CORO CON DISTORSION:

      C#    F        F variante 2      D#

1|----X-----X-------------X------------------|
2|----X----(0)------------X------------------|
3|----X-----0------------(7)-----------(0)---|
4|----5-----2-------------7-------------0----|
5|----3-----2-------------7-------------10---|
6|----3-----0-------------7-------------10---|


NOTA: el F variante 2 lo puedes alternar con el primer F para dar otros matices
      Y enriquecer armónicamente la rola.
Suggest correction
Give kudos to tab author, rate the tab!
1 2 3 4 5
comments
print report bad tab
guest
You may want to rate the tab now too:
select rating
Wanna post a correction for this tab? Suggest correction