Oops, an error
Loading. Please wait.

Nazareno Bass Tab

34 views 1 this week
no commentswrite comment
1 2 3 4 5
3 more votes to show rating
add to favorites
launch autoscroll
font size
0
reset
guitar tuner
×
Best way to learn
"Nazareno"
Autoscroll
slow
fast
+/-
esc
set tempo
stop
Melos, ahi va otra transcripcion y esta es de la
mejor cancion de la banda en este estilo (pienso yo).
Me costo muxo sacarla xq aca no dan los acordes y en
otras paginas nada q ver.
Vean el DVD y sabran q me aproximo algo, weno ahi les va.

Nazareno

Intro (8 tiempos)
E-----1-1-1-1-1-1-1-1--------------------------------------------
A-----------------------4-4-4-4-4-4-4-4-------------------------- (x 2)
D----------------------------------------------------------------
G----------------------------------------------------------------

Estrofa (mutis cuando hay letra)
E----------------------------------------------------------------
A---------------------4-4-4-4-4-4-4-4-4--------------------------
D----------------------------------------------------------------
G----------------------------------------------------------------
  Todos piensan en ti....

Coro
E--1-1-1-1-1-1-1-1------------------1-1-1-1-1-1-1-1-----------------
A-------------------4-4-4-4-4-4-4-4-----------------4-4-4-4-4-4-4-4-
D-------------------------------------------------------------------
G-------------------------------------------------------------------
   Al Nazareno?.
E--1-1-1-1-1-1-1-1-----------------------------3-4--6-7-(7)----------
A--------------------------------4--0-2-3----------------------------
D--------------------------------------------------------------------
G--------------------------------------------------------------------

   Al Nazareno            Nazareno            Yeeiiiiiii??

Intro-estrofa-coro

Solo (va lo mismo que en el coro)

Pero pueden hacer ustedes sus arreglos metiéndole C y C# y algo de F

Coro

Final
E----1-1-1-1-1-1-1-1----------------------------------------------------
A--------------------------------4-4-4-4-4-4-4-4------------------------
D-----------------------------------------------------------------------
G-----------------------------------------------------------------------
                Oh....rock
Suggest correction
Give kudos to tab author, rate the tab!
1 2 3 4 5
comments
print report bad tab
guest
You may want to rate the tab now too:
select rating
Wanna post a correction for this tab? Suggest correction