Oops, an error
Loading. Please wait.

The Trust Tab

version 1
version 1

Whole song

39 views 1 this week
no commentswrite comment
1 2 3 4 5
3 more votes to show rating
add to favorites
launch autoscroll
font size
0
reset
how to read this tab
guitar tuner
×
Best way to learn
"The Trust"
Autoscroll
slow
fast
+/-
esc
set tempo
stop
saludos a todos¡ DtB¡ esta chida esta rola
me la pidieron y aqui esta...perdon por tardarme

INTRO1(X2):
d|---------------------------
a|---------------------------
f|---------------------------
c|---------------------------
G|--5-5-7-5-8-5-5-7-8-5-6666-
C|---------------------------
    <      p.m.       >
d|---------------------------
a|---------------------------
f|---------------------------
c|----------------------6666-
G|--5-5-7-5-8-5-5-7-8-5------
C|---------------------------
    <      p.m.       >

INTRO2(X4): 3a vez P.M.
d|---------------------------
a|---------------------------
f|---------------------------
c|--0-2-3-0-2-3-0--1-1-1-----
G|--0-2-3-0-2-3-0--1-1-1-----
C|--0-2-3-0-2-3-0--1-1-1-----
    C D D#          C#

d|---------------------------
a|---------------------------
f|---------------------------
c|--0-2-3-0-2-3-0--6-6-6-----
G|--0-2-3-0-2-3-0--6-6-6-----
C|--0-2-3-0-2-3-0--6-6-6-----
    D E F          G#

VERSE1:
G#2(let ring)               (INTRO2)
Lo quieres evitar....no podras
G#2(let ring)               (INTRO2)
tu lo sabes bien....entiendelo
G#2(let ring)               (INTRO2)
en cada sueño....voy tras de ti
G#2(let ring)               (INTRO2)
en donde te escondas....ahi estare

CHORUS:
G#2       F2    D#2
con tantas vueltas no podras
F2
detenerme mas
G#2    F2           D#2
simplemente entiendelo
      F2  (INTRO1)(INTRO2)
lo seeee

VERSE2:
Te amo cada vez....entiendeme
no lo entenderas...eso yo lo se
no lo pienses mas....como lo haras
tu vida es mia......asi sera

CHORUS:
con tantas vueltas no podras
detenerme mas
simplemente entiendelo
lo seeee

BRIDGE(x8):
d|----------------------------
a|----------------------------
f|----------------------------
c|--3--0000--3--0000--1-------
c|--3--0000--3--0000--1-------
G|--3--0000--3--0000--1-------
        (pm)       (pm)
SOLO
e|---13-12-13-13H15-13-12-13-12~(ah)-10H12H13-13S15-13-17b-
b|-----------------------------------------------------------
g|-----------------------------------------------------------

e|---20(20)20(20)20-1818-17-13s15-13-15-17---(20)20(20)20-18(18)-
b|---------------------------------------------------------------
g|---------------------------------------------------------------

e|-16-13s15-17--15--13(13)13--10101010----------------------
b|----------------------------------------------------------
g|----------------------------------------------------------

CHORUS:
con tantas vueltas no podras
detenerme mas
simplemente entiendelo
lo seeee

ENDING:(INTRO2) E (INTRO1) Y YA

d|---X----X----X--
a|---X----X----X--
f|---10---7----5--
c|---10---7----5--
G|---8----5----3--
C|---8----5----3--
    G#2   F2   D#2

H=hammer on
B=bend
S=slide
(ah)=Artificial harmonic right hand
(pm)=palm muted

sk8erboi_reloaded@
Suggest correction
Give kudos to tab author, rate the tab!
1 2 3 4 5
comments
print report bad tab
guest
You may want to rate the tab now too:
select rating
Wanna post a correction for this tab? Suggest correction