Oops, an error
Loading. Please wait.

The Trust Tab

version 2
version 2

Whole song

20 views 1 this week
no commentswrite comment
1 2 3 4 5
3 more votes to show rating
add to favorites
launch autoscroll
font size
0
reset
how to read this tab
guitar tuner
×
Best way to learn
"The Trust"
Autoscroll
slow
fast
+/-
esc
set tempo
stop
ESTA CANCION ES CON BASE EN "DO"

INTRO
E---------------------------------------------
B---------------------------------------------
G---------------------------------------------
D---------------------------------------------
A---------------------------------------------
E--8-8-10-8-11--8-8-10-8-11--8-8-10-10-10-10--

E---------------------------------------------
B---------------------------------------------
G---------------------------------------------
D---------------------------------------------
A--------------------------------11-11-11-11--
E--8-8-10-8-11--8-8-10-8-11--8-8--------------

SE REPITE LA PRIMERA PARTE PERO LA SEGUNDA ES DIFERENTE
PARA Q ENTRE LA BATERIA Y ES ASI

E---------------------------------------------
B---------------------------------------------
G---------------------------------------------
D---------------------------------------------
A---------------------------------------------
E--8-8-10-8-11--8-8-10-8-11--8-8-10-----------

DE AHI EMPIEZA LA BATERIA CON LA GUITARRA

E---------------------------------------------
B---------------------------------------------
G---------------------------------------------
D---------------------------------------------
A---------------------------------------------
E--8-10-11-8/10-11--8-10-10-10-10-------------
                                                  x2
E---------------------------------------------
B---------------------------------------------
G---------------------------------------------
D---------------------------------------------
A---------------------11-11-11-11-------------
E--8-10-11-8/10-11--8-------------------------

ESTE ES EL ULTIMO PEDAZO ANTES DE Q EMPIEZE A CANTAR RAUL

E---------------------------------------------
B---------------------------------------------
G---------------------------------------------
D---------------------------------------------
A---------------------------------------------
E--8-8-10-8-11--8-8-10-8-11--8-8-10-10-10-10--
                                                   x2
E---------------------------------------------
B---------------------------------------------
G---------------------------------------------
D---------------------------------------------
A--------------------------------11-11-11-11--
E--8-8-10-8-11--8-8-10-8-11--8-8--------------

ANTES DE Q EMPIEZE A CANTAR RASGUEEN UNA SOLA VEZ ESTA NOTA "G#m"

G#m LO KIERES EVITAR NO PODRAAAAAS....

E---------------------------------------------
B---------------------------------------------
G---------------------------------------------
D---------------------------------------------
A---------------------------------------------
E--8-10-11-8/10-11--8-10-10-10-10-------------

E---------------------------------------------
B---------------------------------------------
G---------------------------------------------
D---------------------------------------------
A---------------------11-11-11-11-------------
E--8-10-11-8/10-11--8-------------------------

G#m TU LO SABES BIEN ENTIENDELOOOOO...

E---------------------------------------------
B---------------------------------------------
G---------------------------------------------
D---------------------------------------------
A---------------------------------------------
E--8-10-11-8/10-11--8-10-10-10-10-------------

E---------------------------------------------
B---------------------------------------------
G---------------------------------------------
D---------------------------------------------
A---------------------11-11-11-11-------------
E--8-10-11-8/10-11--8-------------------------

G#m EN CADA SUEÃ?O VOY TRAS DE TIIIIII.....

E---------------------------------------------
B---------------------------------------------
G---------------------------------------------
D---------------------------------------------
A---------------------------------------------
E--8-10-11-8/10-11--8-10-10-10-10-------------

E---------------------------------------------
B---------------------------------------------
G---------------------------------------------
D---------------------------------------------
A---------------------11-11-11-11-------------
E--8-10-11-8/10-11--8-------------------------

G#m EN DONDE TE ESCONDAS AHI ESTAREEEEE EIEEE...

E---------------------------------------------
B---------------------------------------------
G---------------------------------------------
D---------------------------------------------
A---------------------------------------------
E--8-10-11-8/10-11--8-10-10-10-10-------------

E---------------------------------------------
B---------------------------------------------
G---------------------------------------------
D---------------------------------------------
A---------------------11-11-11-11-------------
E--8-10-11-8/10-11--8-------------------------

G#m            Cm         A#m        Fm
CON TANTAS VUELTAS NO PODRAS DETENERME MAAAAAAS

G#m      Cm         A#m        Fm
SIMPLEMENTE ENTIENDELOOOOO YO SEEEEEE

E---------------------------------------------
B---------------------------------------------
G---------------------------------------------
D---------------------------------------------
A---------------------------------------------
E--8-8-10-8-11--8-8-10-8-11--8-8-10-10-10-10--

E---------------------------------------------
B---------------------------------------------
G---------------------------------------------
D---------------------------------------------
A--------------------------------11-11-11-11--
E--8-8-10-8-11--8-8-10-8-11--8-8--------------

E---------------------------------------------
B---------------------------------------------
G---------------------------------------------
D---------------------------------------------
A---------------------------------------------
E--8-10-11-8/10-11--8-10-10-10-10-------------
                                                  x2
E---------------------------------------------
B---------------------------------------------
G---------------------------------------------
D---------------------------------------------
A---------------------11-11-11-11-------------
E--8-10-11-8/10-11--8-------------------------

G#m TE AMO CADA VEZ ENTIENDEMEEEEEE

E---------------------------------------------
B---------------------------------------------
G---------------------------------------------
D---------------------------------------------
A---------------------------------------------
E--8-10-11-8/10-11--8-10-10-10-10-------------

E---------------------------------------------
B---------------------------------------------
G---------------------------------------------
D---------------------------------------------
A---------------------11-11-11-11-------------
E--8-10-11-8/10-11--8-------------------------

G#m NO LO ENTENDERAS ESO YO LO SEEEEE

E---------------------------------------------
B---------------------------------------------
G---------------------------------------------
D---------------------------------------------
A---------------------------------------------
E--8-10-11-8/10-11--8-10-10-10-10-------------

E---------------------------------------------
B---------------------------------------------
G---------------------------------------------
D---------------------------------------------
A---------------------11-11-11-11-------------
E--8-10-11-8/10-11--8-------------------------

G#m NO PIENSES MAS COMO LO HARAAAAAAS

E---------------------------------------------
B---------------------------------------------
G---------------------------------------------
D---------------------------------------------
A---------------------------------------------
E--8-10-11-8/10-11--8-10-10-10-10-------------

E---------------------------------------------
B---------------------------------------------
G---------------------------------------------
D---------------------------------------------
A---------------------11-11-11-11-------------
E--8-10-11-8/10-11--8-------------------------

G#m TU VIDA ES MIA ASI SERAA
Suggest correction
Give kudos to tab author, rate the tab!
1 2 3 4 5
comments
print report bad tab
guest
You may want to rate the tab now too:
select rating
Wanna post a correction for this tab? Suggest correction