Oops, an error
Loading. Please wait.

Transformame Chords

version 2
version 2

Whole song

50 views 1 this week
no commentswrite comment
1 2 3 4 5
3 more votes to show rating
add to favorites
launch autoscroll
font size
0
reset
transpose
0
reset
simplify chords
display chords
guitar tuner
×
Best way to learn
"Transformame"
Autoscroll
slow
fast
+/-
esc
set tempo
stop
Capo
1st fret
Transformame
Strike 3

Capo 1
intro
e------------------------------------------------
B-----------1-------------------------3----------
G-----0---0---0--------0-------0----0---0-----0--
D---2---2--------2---2------0-----0-------0-0----
A-0----------------------------------------------
E------------------------------------------------

e--------------------------------------------
B---------0-----------------------0----------
G---------------------------0---0---0-----0--
D-----2-4---4-2-----------2---2-------2-2----
A---2-------------2-0-2-3--------------------
E-0------------------------------------------

Esta parte con el intro

Heridas en mi corazón
no pueden sanar
Me siento a platicar contigo
                       C
y pienso que no estas

//C-D2-Em-C2//
C             D2      Em
heridas en mi corazon
            C2   C
no pueden sanar
                 D2          Em
me siento a platicar contigo
                  C2   C
y pienso que no estas
               D2                 Em
cuanto tiempo tengo que pasar asi
             C2  C
con esta soledad
                D2   Em
el aire se me acaba
           C2
quiero libertad

CORO
C2         C
Cambiame señor
               D2
transfórmame Jesús
      Em              C2
Dime que estas en mi vida
          C            D2
Tocame señor hablame Jesús
  Em         C2
No puedo caminar asi
   Em            C2      Em   C2     C
He imaginar que voy   sin ti ooh sin ti
    Em  C     C2
Sin ti ooh sin ti

Solo

coro
  C2         C
//Cambiame señor
               D2
transfórmame Jesús
     Em            C2
Dime que estas en mi vida
          C            D2
Tocame señor hablame Jesús
     Em       C2
No puedo caminar asi
   Em            C2
He imaginar que voy sin ti//


C2     D2     Em     C
e-0-  --0--  --0--  --0--
B-3-  --3--  --0--  --1--
G-0-  --2--  --0--  --0--
D-2-  --0--  --2--  --2--
A-3-  --0--  --2--  --3--
E-0-  --0--  --0--  --0--
Suggest correction
Give kudos to tab author, rate the tab!
1 2 3 4 5
comments
print report bad tab
guest
You may want to rate the tab now too:
select rating
Wanna post a correction for this tab? Suggest correction