Oops, an error
Loading. Please wait.

You Can't Break This Bass Tab

5 views 1 this week
no commentswrite comment
1 2 3 4 5
3 more votes to show rating
add to favorites
launch autoscroll
font size
0
reset
guitar tuner
Autoscroll
slow
fast
+/-
esc
set tempo
stop
Help us to improve Ultimate-Guitar.com Take our survey!
×
Melos, ahi les va otra rola:


Intro
E----3-3-3-3------3-3-3---4-6----------------------------
A-------------------------------------------------------- (x 4)
D--------------------------------------------------------
G--------------------------------------------------------

E----3-3-3-3------6-6-6-6-----1-1-1-1--------------------
A-------------------------------------------------------- (x 2)
D------------------------------------------2-s3--2-s3----
G--------------------------------------------------------

Estrofa
E----3-3-3-3------6-6-6-6-----1-1-1-1-----------0--------
A-------------------------------------------------------- ( x 4)
D------------------------------------------2-s3--2-s3----
G--------------------------------------------------------
     Estes donde.....

Intro-estrofa

Coro
E----3-3-3-3------6-6-6-6-----1-1-1-1--------------------
A-------------------------------------------------------- (x 4)
D--------------------------------------------------------
G--------------------------------------------------------
     Pero hay cosas?

Solo
E----3-3-3-3------6-6-6-6-----1-1-1-1--------------------
A-------------------------------------------------------- (x 4)
D------------------------------------------2-s3--2-s3----
G--------------------------------------------------------

Coro-intro

Final
E--6-6-6-6-6-6-6-6---4-4-4-4-4-4-4-4----1----------------
A--------------------------------------------------------
D--------------------------------------------------------
G--------------------------------------------------------
Suggest correction
Give kudos to tab author, rate the tab!
1 2 3 4 5
comments
print report bad tab
guest
You may want to rate the tab now too:
select rating
Wanna post a correction for this tab? Suggest correction