Oops, an error
Loading. Please wait.

You Can't Break This Tab

22 views 1 this week
no commentswrite comment
1 2 3 4 5
3 more votes to show rating
add to favorites
launch autoscroll
font size
0
reset
how to read this tab
guitar tuner
Autoscroll
slow
fast
+/-
esc
set tempo
stop
Help us to improve Ultimate-Guitar.com Take our survey!
×
INTRO1(x6):
 distor              [N.H.]
d|---------------- ----------
a|---------------- ----------
f|---------------- ---<7>----
c|--0-0--0-0-000-- ---<7>----
G|--0-0--0-0-000-- ---<7>----
C|--0-0--0-0-000-- ----------
    C              <3ra vez>
d|---------------- -----------
a|---------------- -----------
f|---------------- -----------
c|--0-0--0-0h3-h5- -(5)-(a.h)-
G|--0-0--0-0h3-h5- -----------
C|--0-0--0-0h3-h5- -----------
            D#-F
INTRO2(x2):
Clean Chorus
d|------------------------------
a|------------------------------
f|------9------9------7-----7---
c|----7------7------5-----5-----
G|--5------5------5-----5-------
C|------------------------------

d|------------------------------
a|------------------------------
f|------------------------------
c|------7------7----------------
G|----5------5------------------
C|--5------5--------------------

intro2*
d|-----------------------
a|-----------------------
f|-------12-------12-----
c|----10-------10--------
G|--8--------8-----------
C|-----------------------

(INTRO2)(X4)
Estes donde tu estes
yo ahi estare-uee
no te escaparas
eso lo sabra--asss

(INTRO1)
you can´t break this

(INTRO2) (intro2*)

(INTRO2)(x8)
Piensa a donde vas
el viento toca tu rostro
sientes que la lluvia
empapa tus sentidos
pero hay cosas que tu debes de saber
que no es facil
eso debes de entender
¿en donde esta tu corazon?
cuando no estoy junto ati
y si te tardas mas y mas
no escaparas de mi

C                      D#          F
pero hay cosas que tu debes de saber
C
que no es facil
    D#              F
eso debes de entender
C              D#
estes donde estes
     F
estare
C            D#     F
y no me podras detener ie

BRIDGE/SOLO:

d|------------------<12>----------------
a|-----------------------<12>-----------
f|----<7>---------------------<12>--<12>
c|--------<7>-<12>----------------------
G|--------------------------------------
C|--------------------------------------

d|------------------<12>----------------
a|-----------------------<12>-----------
f|----<7>---------------------<12>------
c|--------<7>-<12>------------------<12>
G|--------------------------------------
C|--------------------------------------

d|------------------<12>----------------
a|-----------------------<12>-----------
f|----<7>---------------------<12>--<7>-
c|--------<7>-<12>----------------------
G|--------------------------------------
C|--------------------------------------

CORO:
pero hay cosas que tu debes de saber
que no es facil
eso debes de entender
estes donde estes
estare
y no me podras detener

                 (INTRO1)(X2)
You can´t break this


 h =hammer on
< x >=natural harmonic
( x )=artificial harmonic

haber si le entienden a la tablatura
SI no agreguenme:
sk8erboi_reloaded@
JEDI IN SERVICE OF CRHIST
><strike3> ñu-metal in Jesus¡¡
Suggest correction
Give kudos to tab author, rate the tab!
1 2 3 4 5
comments
print report bad tab
guest
You may want to rate the tab now too:
select rating
Wanna post a correction for this tab? Suggest correction