Oops, an error
Loading. Please wait.

Amplify Tab

version 1
version 1

Whole song

Interactive

1,445 views 3 this week
2 commentsread comments
1 2 3 4 5
please rate
add to favorites
launch autoscroll
font size
0
reset
how to read this tab
guitar tuner
Tab Pro tools
  • play this tab
  • loop segment
  • change instrument
  • show fretboard
  • metronome
×
Best way to learn
"Amplify"
Autoscroll
slow
fast
+/-
esc
set tempo
stop
Contributor
Difficulty
Amplify
Strike Anywhere
Exit English

I'm pretty sure this is correct. If not just email.
dreadlyman420@hotmail.com


E|-------------------------0-0-0-0-0-0-------------|
B|-5-5-5-5-5-5-7-7-7-5-5-5-4-4-4-5-5-5-5-5-5-5-5-5-|
G|-6-6-6-4-4-4-4-4-4-4-4-4-------------4-4-4-6-6-6-|
D|-------------------------------------------------|
A|-------------------------------------------------|
E|-------------------------------------------------|
repeat

E|----------------------------------------|
B|----------------------------------------|
G|----------------------------------------|
D|6-6-2-2-2-----2-2-2-8-8-9-9-9-4-4-6-6-6-|
A|4-4-2-2-2-4-4-2-2-2-6-6-7-7-7-2-2-4-4-4-|
E|----0-0-0-2-2-0-0-0---------------------|
repeat but w/ palm mute

E|-------------------------0-0-0-0-0-0-------------|
B|-5-5-5-5-5-5-7-7-7-5-5-5-4-4-4-5-5-5-5-5-5-5-5-5-|
G|-6-6-6-4-4-4-4-4-4-4-4-4-------------4-4-4-6-6-6-|
D|-------------------------------------------------|
A|-------------------------------------------------|
E|-------------------------------------------------|
repeat

human pollution
E|----------------------|
B|----------------------|
G|----------------------|
D|6-6-6-6----6--6--6--6-|
A|4-4-4-4-2--4--4--4--4-|
E|--------0-------------|
repeat
comments
We did not receive enough feedback on this tab! Please rate:
print report bad tab
1 2 3 4 5
2 comments total.
0 reply
a-fmaster15 wrote on August 9 2006, 03:57 am

very damn close and overal good tab

B|----------------------------------------|
G|----------------------------------------|
D|6-6-2-2-2-----2-2-2-8-8-9-9-9-4-4-6-6-6-|
A|4-4-2-2-2-4-4-2-2-2-6-6-7-7-7-2-2-4-4-4-|
E|----0-0-0-2-2-0-0-0---------------------|
repeat but w/ palm mute

the first 4-4 should be up one one like this:
2-2

G|----------------------------------------|
D|6-6-2-2-2-4-4-2-2-2-8-8-9-9-9-4-4-6-6-6-|
A|4-4-2-2-2-2-2-2-2-2-6-6-7-7-7-2-2-4-4-4-|
E|----0-0-0-----0-0-0---------------------|

0 reply
xxEmoxxBoyxx wrote on December 22 2007, 09:42 pm

nice tab man.....could you pleeeeeeeeeez tab Question The Answer?

I want to post or [tab]
guest
You may want to rate the tab now too:
select rating
Please do not post tabs as comments. Select "correction" instead!