Oops, an error
Loading. Please wait.

Amplify Tab

version 2
version 2

Whole song

Interactive

680 views 3 this week
no commentswrite comment
1 2 3 4 5
3 more votes to show rating
add to favorites
launch autoscroll
font size
0
reset
how to read this tab
guitar tuner
Autoscroll
slow
fast
+/-
esc
set tempo
stop
Help us to improve Ultimate-Guitar.com Take our survey!
×
Difficulty
novice
-------------------------------------------------------------------------------
			     Amplify – Strike Anywhere
-------------------------------------------------------------------------------
Tabbed by: Johnny Kiy
Email: johnnykiy14@tiscali.co.uk

Tuning: Standard
Intro

e|7------------000-----------------------------------------------------------|
B|5555444555444555-777555----------------------------------------------------|   x2
G|-444444444444----444666----------------------------------------------------|
D|---------------------------------------------------------------------------|
A|---------------------------------------------------------------------------|
E|---------------------------------------------------------------------------|
	Gtr1

e|---------------------------------------------------------------------------|
B|---------------------------------------------------------------------------|
G|--------------666---444-----999444666--------------------------------------|
D|--------------66622244422299999444666--------------------------------------|  
A|--------------44422222222266777222444--------------------------------------|
E|-Pickslide-------000---000-------------------------------------------------|
	Gtr2   		

e|---------------------------------------------------------------------------|
B|---------------------------------------------------------------------------|
G|666---444-----999444666----------------------------------------------------/    x2
D|66622244422299999444666----------------------------------------------------/	     
A|44422222222266777222444----------------------------------------------------|
E|---000---000---------------------------------------------------------------|
  ***********************
	Gtr1+2

Then lead plays intro x2 whilst Gtr2 plays the following:
e|---------------------------------------------------------------------------|
B|---------------------------------------------------------------------------|
G|6----------------------6---------------------------------------------------|
D|6----------------------6---------------------------------------------------|
A|4 let ring-------------4---------------------------------------------------|
E|------------pickslide------------------------------------------------------|

Then Gtrs 1+2 play the following together with a few pickslides

e|---------------------------------------------------------------------------|
B|---------------------------------------------------------------------------|
G|6--------------22--44------------------------------------------------------|
D|6--------------22--44------------------------------------------------------|      x2
A|4 let ring-----00--22------------------------------------------------------|
E|---------------------------------------------------------------------------|
	       **  ** 	

That’s pretty much it however live they through a few extra chords and things in during the slow bits. 

| /  slide up
| \  slide down
| h  hammer-on
| p  pull-off
| ~  vibrato
| +  harmonic
| x  Mute note
===============================================================================
Suggest correction
Give kudos to tab author, rate the tab!
1 2 3 4 5
comments
print report bad tab
guest
You may want to rate the tab now too:
select rating
Wanna post a correction for this tab? Suggest correction