Oops, an error
Loading. Please wait.

Blaze Tab

2,207 views 1 this week
no commentswrite comment
1 2 3 4 5
please rate
add to favorites
launch autoscroll
font size
0
reset
how to read this tab
guitar tuner
Autoscroll
slow
fast
+/-
esc
set tempo
stop
Help us to improve Ultimate-Guitar.com Take our survey!
×
Author
Difficulty
intermediate
-------------------------------------------------------------------------------
                             Blaze - Strike Anywhere
-------------------------------------------------------------------------------
Tabbed by: Adam Lenning
Email: a_wilhelm_scream@hotmail.com

Tuning: Standard

Listen to the song for strumming pattern and exact timing.
 
Guitar 1 is on top. Guitar 2 is at the bottom.


Guitar 1

Intro:
e|------|
B|------|
G|-4----|
D|-4-2--|
A|-2-2--|
E|---0--|

Verse 1: (0:02)
e|-----0-----------------0-------------0-----------------0---------|
B|-------0-----------------0-------------0-----------------0-------|
G|------------------------------4-----------------------------9-9--|
D|---6------6/7\6\4----4------2-4----6------6/7\6\4----4------9-9--|
A|-4--------0--------2--------2-2--4--------0--------2--------7-6--|
E|----------------------------0------------------------------------|

e|-----0-----------------0-------------0-----------------0----------------|
B|-------0-----------------0-------------0-----------------0--------------|
G|------------------------------4-----------------------------2----4-4/6--|
D|---6------6/7\6\4----4------2-4----6------6/7\6\4----4------2-22-4-4/6--|
A|-4--------0--------2--------2-2--4--------0--------2--------0-22-2-2/4--|
E|----------------------------0---------------------------------00--------|
                                                                xx

Chorus: (0:21)
e|--------------------------------0-------|
B|------------------------------0---------|
G|-66-------44-------66-------4-----------|
D|-66-77746-44-77746-66-77746-4-----2222--| x3
A|-44-00000-22-00000-44-00000-2-----2222--|
E|----------------------------------0000--|
                                    xxxx
e|-----------------------------------------4~--|
B|-----------------------------------------5~--|
G|-66-------44-------66-------2------4-4/6-6~--|
D|-66-77746-44-77746-66-77746-2-2222-4-4/6-6~--|
A|-44-00000-22-00000-44-00000-0-2222-2-2/4-4~--|
E|------------------------------0000-----------|
                                xxxx

Bridge Intro: (0:48)
e|-4~------------|
B|-5~------------|
G|-6~--666--666--|
D|-6~--666--666--|
A|-4~--444--444--|
E|-----xxx--xxx--|

Bridge: (0:55)
e|-----0-------0-------0-------0-------0-------0-------0-------0----|
B|-------0-------0-------0-------0-------0-------0-------0-------0--|
G|------------------------------------------------------------------|
D|---6-------6-------2-------2-------4-------6-------2--------------| x2
A|-4-------4-------0-------0-------2-------4-------0---------2------|
E|---------------------------------------------------------0--------|

Verse 2: (1:13)
e|-----------------0-------0-------0----|
B|-------------------0-------0-------0--|
G|-6-666-4-444--------------------------|
D|-6-666-4-444---2---------------4------| x2
A|-4-444-2-222-0---------2-----2--------|
E|---xxx---xxx---------0----------------|

e|-----------------0--------------------------|
B|-------------------0------------------------|
G|-6-666-4-444----------9-999-99-11-11-11-13--|
D|-6-666-4-444---2----------------------------|
A|-4-444-2-222-0------------------------------|
E|---xxx---xxx--------------------------------|

e|-----------------0-------0---------------|
B|-------------------0-------0-------------|
G|-6-666-4-444-----------------2----4-4/6--|
D|-6-666-4-444---2-------------2-22-4-4/6--|
A|-4-444-2-222-0---------2-----0-22-2-2/4--|
E|---xxx---xxx---------0---------00--------|
                                 xx

Chorus: (1:32)
e|--------------------------------0-------|
B|------------------------------0---------|
G|-66-------44-------66-------4-----------|
D|-66-77746-44-77746-66-77746-4-----2222--|
A|-44-00000-22-00000-44-00000-2-----2222--|
E|----------------------------------0000--|
                                    xxxx
e|-------------------------------------|
B|-------------------------------------|
G|-66-------44-------66-------2----66--|
D|-66-77746-44-77746-66-77746-2-22-66--|
A|-44-00000-22-00000-44-00000-0-22-44--|
E|------------------------------00-----|
                                xx

Outro: (1:44)
e|--------------------------------------|
B|--------------------------------------|
G|-66-------44-------66-------444-------|
D|-66-77746-44-77746-66-77746-444-2222--|
A|-44-00000-22-00000-44-00000-222-2222--|
E|-xx-------xx-------xx-----------0000--|
                                  xxxx
e|-----------------------------------------|
B|-----------------------------------------|
G|-66-------44-------66-------444----------|
D|-66-77746-44-77746-66-77746-444-2222-66--|
A|-44-00000-22-00000-44-00000-222-2222-66--|
E|-xx-------xx-------xx-----------0000-44--|
                                  xxxx xx


===============================================================================

Guitar 2

Intro:
e|------|
B|------|
G|-4----|
D|-4-2--|
A|-2-2--|
E|---0--|

Verse 1: (0:02)
e|----------------------------------------------|
B|----------------------------------------------|
G|-6666---------4444---4-6666---------4444-9-7--|
D|-6666-6/7\6\4-4444-2-4-6666-6/7\6\4-4444-9-7--|
A|-4444-0-------2222-2-2-4444-0-------2222-7-6--|
E|-------------------0--------------------------|

e|-----------------------------------------------------|
B|-----------------------------------------------------|
G|-6666---------4444---4-6666---------4444-2----4-4/6--|
D|-6666-6/7\6\4-4444-2-4-6666-6/7\6\4-4444-2-22-4-4/6--|
A|-4444-0-------2222-2-2-4444-0-------2222-0-22-2-2/4--|
E|-------------------0-----------------------00--------|
                                             xx

Chorus: (0:21)
e|----------------------------------|
B|----------------------------------|
G|-66-2222-44-2222-66-2222-66-------|
D|-66-2222-44-2222-66-2222-66-2222--| x2
A|-44-0000-22-0000-44-0000-44-2222--|
E|----------------------------0000--|
                              xxxx
e|-0-0-0-0-----------------0-5------------------|
B|-5-5-5-5-7-5-7-7b8r7-5-7-5---5\4---4/5-4------|
G|---------------------------------4-------6-4--|
D|----------------------------------------------|
A|----------------------------------------------|
E|----------------------------------------------|

e|-0-0-0-0-----------------0-5------------------4~--|
B|-5-5-5-5-7-5-7-7b8r7-5-7-5---5\4--------------5~--|
G|---------------------------------4-2----4-4/6-6~--|
D|-----------------------------------2-22-4-4/6-6~--|
A|-----------------------------------0-22-2-2/4-4~--|
E|-------------------------------------00-----------|
                                       xx

Bridge Intro: (0:48)
e|-4~--------------------------|
B|-5~--------------------------|
G|-6~--\\\\\\\\\\\\--666--666--|
D|-6~--(PICK SLIDE)--666--666--|
A|-4~--\\\\\\\\\\\\--444--444--|
E|-------------------xxx--xxx--|

Bridge: (0:55)
e|-------------------------------------------------|
B|-------------------------------------------------|
G|-99999999-11111111-13131313-8888-9999-6666-4444--|
D|-xxxxxxxx-x-x-x-x--x-x-x-x--xxxx-xxxx-xxxx-xxxx--| x2
A|-77777777-9-9-9-9--11111111-6666-7777-4444-2222--|
E|-------------------------------------------------|

Verse 2: (1:13)
e|-----------------------------|
B|-----------------------------|
G|-6-666-4-444-2222-9999-4444--|
D|-6-666-4-444-2222-9999-4444--| x3
A|-4-444-2-222-0000-7777-2222--|
E|---xxx---xxx-----------------|

e|-----------------------------------|
B|-----------------------------------|
G|-6-666-4-444-2222-9999-2----4-4/6--|
D|-6-666-4-444-2222-9999-2-22-4-4/6--|
A|-4-444-2-222-0000-7777-0-22-2-2/4--|
E|---xxx---xxx-------------00--------|
                           xx

Chorus: (1:32)
e|----------------------------------|
B|----------------------------------|
G|-66-2222-44-2222-66-2222-66-------|
D|-66-2222-44-2222-66-2222-66-2222--|
A|-44-0000-22-0000-44-0000-44-2222--|
E|----------------------------0000--|
                              xxxx
e|-------------------------------------|
B|-------------------------------------|
G|-66-2222-44-2222-66-2222-66-2----66--|
D|-66-2222-44-2222-66-2222-66-2-22-66--|
A|-44-0000-22-0000-44-0000-44-0-22-44--|
E|------------------------------00-----|
                                xx

Outro: (1:44)
e|-----------------------9999999999999999999999999999999999--|
B|-----------------------xxxxxxxxxxxxxxxxxxxxxxxxxxxxxxxxxx--|
G|-66--44--66--666-------6666666666666666666666666666666666--|
D|-66--44--66--666-2222--------------------------------------|
A|-44--22--44--444-2222--------------------------------------|
E|-xx--xx--xx------0000--------------------------------------|
                   xxxx

| /  slide up
| \  slide down
| h  hammer-on
| p  pull-off
| b  full bend
| r  release
| ~  let ring
| +  harmonic
| x  Mute chord
===============================================================================
Suggest correction
Give kudos to tab author, rate the tab!
1 2 3 4 5
comments
print report bad tab
guest
You may want to rate the tab now too:
select rating
Wanna post a correction for this tab? Suggest correction