Oops, an error
Loading. Please wait.

Chalkline Bass Tab

1,556 views 1 this week
no commentswrite comment
1 2 3 4 5
please rate
add to favorites
launch autoscroll
font size
0
reset
guitar tuner
Autoscroll
slow
fast
+/-
esc
set tempo
stop
Help us to improve Ultimate-Guitar.com Take our survey!
×
Author
Band: strike anywhere
Album: change is a sound
Song: chalkline

Intro

G|----------------------------------|
D|----------------------------------| 
A|-2-222---------235-555------------|
E|------2-3-33335-------345-5555555-|

G|----------------------------------|
D|----------------------457--5-4----| 
A|-222-2---------235-5-5---------5--|
E|------2-3-33335-------------------|

Verse x4

G|----------------------------------|
D|----------------------------------| 
A|-2-22222---------5-55555----------| 
E|--------3-3333235-------5-5555555-|

Pre-chorus

G|----------------------------------|
D|----------------------------------| 
A|----------------------------------| x2
E|-33333333555555557777777777777777-|

Chorus

G|----------------------------------|
D|----------------------------------| 
A|-----------------555-----555------|
E|-3333333355555555---77777---77777-|

G|----------------------------------|
D|----------------------------------| 
A|-----------------555--------------| 
E|-3333333355555555---7777777777777-|

Repeat

Intro
Verse x2
Pre-chorus
Chorus

Bridge (1:23

G|----------------------------------|
D|----------------------------------| 
A|-222-222---------555-555----------| x2
E|---------333-333---------555-555--|

G|----------------------------------|
D|----------------------------------| 
A|-2-222222--------5-555555---------| 
E|---------3-333333--------5-555555-|

G|----------------------------------|
D|----------------------------------| 
A|-2-222222--------5--55--5---------| 
E|---------3-333333--------5~-------|

1:41

G|----------------------------------|
D|----------------------------------| 
A|-22-222-2--------55-555-5---------| x4
E|---------33-333-3--------55-555-5-|

Chorus 1:59

G|----------------------------------|
D|----------------------------------| 
A|----------------------------------|
E|-33-333-355-555-577-777-777-777-7-|

G|----------------------------------|
D|-55-555-544-422-2-----------------| 
A|-----------------22-222-222-222-2-| 
E|----------------------------------|

G|----------------------------------|
D|----------------------------------| 
A|-----------------555--------------| x2
E|-3333333355555555---7777777777777-|

Bridge 2:16

G|----------------------------------|
D|----------------------------------| 
A|-22222222222222222222222222222222-|
E|----------------------------------|

G|----------------------------------|
D|----------------------------------| 
A|-2222222222222222222222222-2-2222-|
E|----------------------------------|

Ending 2:25

G|----------------------------------|
D|----------------------------------| 
A|-22-222-2----55-522-222-2----55-5-|
E|---------33-3------------33-3-----|

G|----------------------------------|
D|----------------------------------| 
A|-22-222-2----55-522-222-2----55-5-|
E|---------33-3------------33-3-----|

G|----------------------------------|
D|----------------------------------| 
A|-22----------2.-------------------|
E|----------------------------------|
Suggest correction
Give kudos to tab author, rate the tab!
1 2 3 4 5
comments
print report bad tab
guest
You may want to rate the tab now too:
select rating
Please do not post tabs as comments. Select "correction" instead!