Oops, an error
Loading. Please wait.

Chorus Of One Tab

848 views 1 this week
no commentswrite comment
1 2 3 4 5
please rate
add to favorites
launch autoscroll
font size
0
reset
how to read this tab
guitar tuner
Tab Pro tools
  • play this tab
  • loop segment
  • change instrument
  • show fretboard
  • metronome
×
Best way to learn
"Chorus Of One"
Autoscroll
slow
fast
+/-
esc
set tempo
stop
Contributor
esta es mi primera tab de strike anywhere gran banda maravillosa y bueno tal vez tenga
mis disculpas si las tengo pero pueden mandarme un mensaje a shagy_jd9@hotmail.com y
claro que se vale ok.

intro
-----------------------------------------------------------------|
-----------------------------------------------------------------|
-------------------------9999/8888/9999/8888---------------------|
6~-----------------------9999/8888/9999/8888-6-------------------|
6~ to live in discontent-7777/6666/7777/6666-6-------------------|anti-establishment
4~-------------------------------------------4-------------------|


------------------------------------------------------------------|
------------------------------------------------------------------|
9999/8888/11-11-11-11-----9999/8888/9999/8888---------------------|
9999/8888/11-11-11-11--6--9999/8888/9999/8888-6~------------------|
7777/6666/9--9--9--9---6--7777/6666/7777/6666-6-------------------| If we just look inside
-----------------------4----------------------4~------------------|

-------------------|
-------------------|
9999/8888/11~~-----|
9999/8888/11~~-----| each of us
7777/6666/9~~~-----| a thousand rebellions sleep
-------------------|

verso 1
You dance! Upon rights not yours to give..............
-------------------------------------------------------------|
-------------------------------------------------------------|
-------------------------------------------------------------|
9999999-22222-0-66666-0-44444-22222-0-44444------------------|(x2)
9999999-22222-0-66666-0-44444-22222-0-44444------------------|
7777777-00000-0-44444-0-22222-00000-0-22222------------------|

Litters our hearts
-----------------------------|
-----------------------------|
-----999991010101010101010---|
99999999991010101010101010---|(x1)
99999777779-9-9-9-9-9-9-9----|
77777------------------------|

-------------------------------------------------------------|
-------------------------------------------------------------|
-------------------------------------------------------------|
9999999-22222-0-66666-0-44444-22222-0-44444------------------|
9999999-22222-0-66666-0-44444-22222-0-44444------------------|(x1)
7777777-00000-0-44444-0-22222-00000-0-22222------------------|


I will try everything................
-------------------------------|
-------------------------------|
9/8-------------------999999-0-|
9/8-999999-0-666666-0-999999-0-|(x2)
7/6-999999-0-666666-0-777777-0-|
----777777-0-444444-0----------|

-------------------------------|
-------------------------------|
9/8-------------------999999-0-|
9/8-999999-0-666666-0-999999-0-|(x1)
7/6-999999-0-666666-0-777777-0-|
----777777-0-444444-0----------|
     .....

-------------------------------|
-------------------------------|
9/8-------------------999999-0-|
9/8-999999-0-666666-0-999999-0-|(x1)
7/6-999999-0-666666-0-777777-0-|
----777777-0-444444-0----------|

verso 2
-------------------------------------------------------------|
-------------------------------------------------------------|
-------------------------------------------------------------|
9999999-22222-0-66666-0-44444-22222-0-44444------------------|
9999999-22222-0-66666-0-44444-22222-0-44444------------------|(x2)
7777777-00000-0-44444-0-22222-00000-0-22222------------------|

Litters our hearts
-----------------------------|
-----------------------------|
-----999991010101010101010---|
99999999991010101010101010---|(x2)
99999777779-9-9-9-9-9-9-9----|
77777------------------------|


escucha la cancion y sigue el ritmo
to live....to live...to live in discontent
-----------------------------|
-----------------------------|
-----------------------------|
-----------------------------|(x4)
99999999999999999999999999999
77777777777766666666666666666

So how am I supposed to trust you?
---------------------------------------------|
---------------------------------------------|
----------99999999-----------999999/10101010-|
999999999-99999999-666666666-999999/10101010-|(x2)
999999999-77777777-666666666-777777/9-9-9-9--|
777777777----------444444444-----------------|

---------------------------------------------|
---------------------------------------------|
----------99999999-----------999999/10101010-|
999999999-99999999-666666666-999999/10101010-|(x2)
999999999-77777777-666666666-777777/9-9-9-9--|
777777777----------444444444-----------------|
.. ..  .. ..  ..   ..  .. .. .. ..   .. ..

-------------------------------------------------------------|
-------------------------------------------------------------|
-------------------------------------------------------------|
9999999-22222-0-66666-0-44444-22222-0-44444------------------|
9999999-22222-0-66666-0-44444-22222-0-44444------------------|(x2)
7777777-00000-0-44444-0-22222-00000-0-22222------------------|


Litters our hearts
-----------------------------|
-----------------------------|
-----999991010101010101010---|
99999999991010101010101010---|(x1)
99999777779-9-9-9-9-9-9-9----|
77777------------------------|


----------------------------------------------------------------|
----------------------------------------------------------------|
----------------------------------------------------------------|
9999999-22222-0-66666-0-44444-22222-0-44444---9~----------------|
9999999-22222-0-66666-0-44444-22222-0-44444---9~----------------|(x1)
7777777-00000-0-44444-0-22222-00000-0-22222---7~----------------|
                                               final


ok esta es mi tab tendra errores ya que la saque de puro oido pero si tienen dudas o
corregirme los errores ok me mandan un mensaje a shagy_jd9@hotmail.com o bien aqui.
suerte amigos
comments
We did not receive enough feedback on this tab! Please rate:
print report bad tab
1 2 3 4 5
I want to post or [tab]
guest
You may want to rate the tab now too:
select rating
Please do not post tabs as comments. Select "correction" instead!