Oops, an error
Loading. Please wait.

Denotation Tab

811 views 1 this week
1 commentread comment
1 2 3 4 5
excellent!
x 1
add to favorites
launch autoscroll
font size
0
reset
how to read this tab
guitar tuner
Tab Pro tools
  • play this tab
  • loop segment
  • change instrument
  • show fretboard
  • metronome
Autoscroll
slow
fast
+/-
esc
set tempo
stop
Contributor
Hey everybody, this song is 100%, its the funnest punk song to play ever...except if you 
a shitty singer.

p.s. I'll make this tab so you can print it on one page, cause i hate tabs that are 
pages long with the same damn chords.

(check out my band www.myspace.com/thedcupsthedcups yes we got music)

Intro  Guitar 1 & 2
e|-------------------| during the palm mutes, just make scraty noises
b|-------------------|
g|-66------66------6-|
d|-66------66------6-|
a|-44-4444-44-4444-4-|
E|----....----....---|

Verse. NOTE: DONT DO THE  4 6 6 ON THE FIRST TIME  Guitar 1 & 2
e|----------------------------------------------|
b|----------------------------------------------|
g|-6666-6666-9999-88-99-2222-2222---------------|
d|-6666-6666-9999-99-99-2222-2222-4444-66-677-7-|x4
a|-4444-4444-7777-77-77-0000-0000-4444-66-677-7-|
E|--------------------------------2222-44-455-5-|

Chorus Guitar 1 & 2
e|----------------------------------------|
b|----------------------------------------|
g|-66666666-99999999----2~-22222-44444444-|
d|-66666666-99999999----2~-22222-44444444-|X2
a|-44444444-77777777-00-0--00000-22222222-|
E|----------------------------------------|

Verse 2 Guitar 1 & 2
e|--------------------------------------------------------------|
b|--------------------------------------------------------5-4---|
g|-66----------66-9----------99-2-----------22-4--------------4-|
d|-66----------66-9----------99-2-----------22-4----------------|X2
a|-44-44444444-44-7-77777777-77-0-000000000-00-2-22222222-------|
E|----........------........------.........------........-------|

Bridge/solo/intrelude/ballsacks Guitar 1 (Guitar 2 Does Chorus still)
e|------------------------------------------|--------------------------|
b|------------------------------------------|--------------------------|
g|-1414141414-1313131313-1414-1313-1111-1313|-9999999999-88888-999-888-|
d|-xxxxxxxxxx-xxxxxxxxxx-xxxx-xxxx-xxxx-xxxx|-xxxxxxxxxx-xxxxx-xxx-xxx-|X3
a|-1212121212-1111111111-1212-1111-9-9--1111|-7777777777-77777-777-777-|
E|------------------------------------------|--------------------------|
cont...  NOTE: After this part (bottom) do that 7 x 9 on the top all over
e|------------------------------------------------------|
b|------------------------------------------------------|
g|-1414141414-131313-141414-161616-141414-131313-141414-|
d|-xxxxxxxxxx-xxxxxx-xxxxxx-xxxxxx-xxxxxx-xxxxxx-xxxxxx-|
a|-1212121212-111111-121212-141414-121212-111111-121212-|
E|------------------------------------------------------|

The Next Part ("STAND UP, SUCK BALLS...")  GUITAR 1
e|-DO-THIS-||-------GUITAR-1-does-----||-
comments
We did not receive enough feedback on this tab! Please rate:
print report bad tab
1 2 3 4 5
1 comment total.
0 reply
Pure_Bordem wrote on March 25 2007, 05:01 pm

your band sucks ass ..

I want to post or [tab]
guest
You may want to rate the tab now too:
select rating
Please do not post tabs as comments. Select "correction" instead!