Oops, an error
Loading. Please wait.

Hollywood Cemetery Bass Tab

version 1
version 1

Whole song

Interactive

825 views 3 this week
no commentswrite comment
1 2 3 4 5
please rate
add to favorites
launch autoscroll
font size
0
reset
guitar tuner
Autoscroll
slow
fast
+/-
esc
set tempo
stop
Help us to improve Ultimate-Guitar.com Take our survey!
×
Author
Band: strike anywhere
Album: dead fm
Song: hollywood cemetery

Tuning: Drop D

Intro

G|------------------|
D|----------3332320-| 
A|-333---000--------| x2
D|----222-----------|

G|------------------|
D|------------------| 
A|-333---000--------|
D|----222---3332320-|

G|------------------|
D|----------3332320-| 
A|-333---000--------|
D|----222-----------|

Verse 0.09

G|------------------|
D|------------------| 
A|-33333333---23333-| x2
D|---------55-------|

G|------------------|
D|------------------| 
A|-33333333---------|
D|---------55-57777-|

G|------------------|
D|------------------| 
A|-33333333----3.---|
D|---------5555--5.-|

Chorus 0:18

G|----------------------------------|
D|----------------------------------| 
A|-----------------3-3333333.--3.---|
D|-7-7777773-333333----------5.--5.-|

G|----------------------------------|
D|-------------------553322553322---|
A|-----------------33------------55-|
D|-7-7777773-333333-----------------|

Repeat

Verse 0:27

G|------------------|
D|------------------| 
A|-33333333---23333-| x2
D|---------55-------|

G|------------------|
D|------------------| 
A|-33333333---------|
D|---------55-57777-|

G|------------------|
D|------------------| 
A|-33333333----3.---|
D|---------5555--5.-|

Chorus 0:37

G|----------------------------------|
D|----------------------------------| 
A|-----------------3-3333333.--3.---|
D|-7-7777773-333333----------5.--5.-|

G|----------------------------------|
D|-------------------553322553322---|
A|-----------------33------------55-|
D|-7-7777773-333333-----------------|

Bridge 0:46

G|--------------------------------------------------|
D|--------------------------------------------------| 
A|-3---------------3~--------------3~---------------|
D|--------------------------------------------------|

G|---------------------------------|
D|---------------------------------| 
A|-3333333333333333333333333-------|
D|---------------------------------|

Chorus 0:58 x2

G|----------------------------------|
D|----------------------------------| 
A|-----------------3-3333333.--3.---|
D|-7-7777773-333333----------5.--5.-|

G|----------------------------------|
D|-------------------553322553322---|
A|-----------------33------------55-|
D|-7-7777773-333333-----------------|

Ending

G|------------------|
D|----------3332320-| 
A|-333---000--------| x3
D|----222-----------|

G|----------------------------------|
D|----------3332320-----------------| 
A|-333---000-------3.--3.--3~-------|
D|----222---------------------------|
Suggest correction
Give kudos to tab author, rate the tab!
1 2 3 4 5
comments
print report bad tab
guest
You may want to rate the tab now too:
select rating
Wanna post a correction for this tab? Suggest correction