Oops, an error
Loading. Please wait.

I Will Question The Answer Tab

1,544 views 6 this week
4 commentsread comments
1 2 3 4 5
excellent!
x 2
add to favorites
launch autoscroll
font size
0
reset
how to read this tab
guitar tuner
Tab Pro tools
  • play this tab
  • loop segment
  • change instrument
  • show fretboard
  • metronome
Autoscroll
slow
fast
+/-
esc
set tempo
stop
Contributor
Difficulty
Tuning
novice
D A D G B E
Strike Anywhere-Question the Answer

Tabbed by: James Marsh

I saw there wasnt any tabs for it so i figured i'd tab it. Hope you like it

(Intro)

|----------------------------------------------------------------|
|----------------------------------------------------------------|
|----------------------------------------------------------------|
|-0-0---0-0-0---0-0-0---0-0-0---0-8-8---8-8-8---8-3-3---3-5-5----|
|-0-0---0-0-0---0-0-0---0-0-0---0-8-8---8-8-8---8-3-3---3-5-5----|
|-0-0---0-0-0---0-0-0---0-0-0---0-8-8---8-8-8---8-3-3---3-5-5----|


(Chorus)
|-----------------------------------------------------------------|
|-----------------------------------------------------------------|
|-----------------------------------------------------------------|
|-0-0---0-0-0---0-8-8---8-3-3-------------------------------------| Repeat x8
|-0-0---0-0-0---0-8-8---8-3-3-------------------------------------|
|-0-0---0-0-0---0-8-8---8-3-3-------------------------------------|


|--------------------------------------------------------------------|
|--------------------------------------------------------------------|
|--------------------------------------------------------------------|
|-0--000000000000-12--1010101010101010-888888888888-1010101010101010-|Repeat x2
|-0--000000000000-12--1010101010101010-888888888888-1010101010101010-|
|-0--000000000000-12--1010101010101010-888888888888-1010101010101010-|
                         ^For the record, those are 10's not 1's and 0's


|-------------------|
|-10-8----10-8------|
|------10-------10--| Play this after the second time
|-------------------|
|-------------------|
|-------------------|

(Chorus 2)
|------------------------------------------------------------------------------|
|------------------------------------------------------------------------------|
|------------------------------------------------------------------------------|
|-0-0-0-0-0-0-0-0-10-10-10-10-10-10-10-10-8-8-8-8-8-8-8-8-10-10-10-10-10-10-10-|
|-0-0-0-0-0-0-0-0-10-10-10-10-10-10-10-10-8-8-8-8-8-8-8-8-10-10-10-10-10-10-10-|
|-0-0-0-0-0-0-0-0-10-10-10-10-10-10-10-10-8-8-8-8-8-8-8-8-10-10-10-10-10-10-10-|

(Bridge)
|-----------------------------------------|
|-----------------------------------------|
|-14-14---14-14-14---14-14-14---14-17--15-|
|-x--x----x--x--x-----x--x--x----x--x--x--|
|-12-12---12-12-12---12-12-12---12-15--13-|
|-----------------------------------------|

|----------------------------------------|
|----------------------------------------|
|-14-14---14-14-14---14-14-14---14-14-10-|
|-x--x----x--x--x----x--x--x----x--x--x--|
|-12-12---12-12-12---12-12-12---12-12-8--|
|----------------------------------------|

|-------------------------------------|
|-------------------------------------|
|-15-15---15-15-15---15-15-15---15-10-|
|-x--x----x--x--x----x--x--x----x--x--|
|-13-13---13-13-13---13-13-13---13-8--|
|-------------------------------------|

|----------------------------------------------|
|----------------------------------------------|
|--12-12---12-12-12---12-12-12---12-15--14--10~|
|--x--x----x--x--x----x--x--x----x--x----x--x--|
|--10-10---10-10-10---10-10-10---10-13--12--8~-|
|----------------------------------------------|

|----------------------------|
|----------------------------|
|-14~----17~----15-14-----10-|
|-x------x------x--x------x--| Repeat x2
|-12~----15~----13-12-----8--|
|----------------------------|


This is the crazy fast part (dont know what to call it)
|---------------------------------------|
|---------------------------------------|
|---------------------------------------|
|-10-/12-12-12---10-/12-12-12-7-7-7-7---| Repeat x3
|-10-/12-12-12---10-/12-12-12-7-7-7-7---|
|-10-/12-12-12---10-/12-12-12-7-7-7-7---|

|---------------------------------|
|---------------------------------|
|---------------------------------|
|-8-8-8-8-8-8-8-8-8-8-8-8-8-8-8-8-|
|-8-8-8-8-8-8-8-8-8-8-8-8-8-8-8-8-|
|-8-8-8-8-8-8-8-8-8-8-8-8-8-8-8-8-|

(Breakdown)
|--------------------------------|
|--------------------------------|
|--------------------------------|
|-12--10--12--x-x--77--7--88--8--| Repeat x3
|-12--10--12--x-x--77--7--88--8--|
|-12--10--12--x-x--77--7--88--8--|

|----------------------------|
|----------------------------|
|----------------------------|
|-12-12-12-12-12-12-12-12-12-|
|-12-12-12-12-12-12-12-12-12-|
|-12-12-12-12-12-12-12-12-12-|

|-------------------------|
|-------------------------|
|-------------------------|
|-12---12-12-12---7-7---8-| Play x16 all together, after each 3rd time play "Riff 1"
|-12---12-12-12---7-7---8-|
|-12---12-12-12---7-7---8-|

(Riff 1)
|-------------|
|-------------|
|-------------|
|-10-10---12--|
|-x--x----x---|
|-8--8----10--|

This is the part after the bass break
|--------------------------------------|
|--------------------------------------|
|--------------------------------10-10-|
|-12-12---12-12-12---12-8-8---8-10-10--| Repeat x4
|-12-12---12-12-12---12-8-8---8-8--8---|
|-12-12---12-12-12---12-8-8---8--------|

This part is really quiet so it might not be %100 accurate
|----------|
|----------|
|---10~----|
|-8~-------|Let this ring for a few measures...
|----------|
|----------|

|-10------------|
|----------8~---|
|-----10--------|
|---------------|Let this ring...
|---------------|
|---------------|

|---------------------------------|
|-11-10--------8~-----------------|
|-------10~-----------10~-------9~|
|---------------------------------|
|---------------------------------|
|---------------------------------|

|-------------------|
|-------------------|
|-----------3-------|
|-7----3----3----5--|
|-7----3----1----5--|
|-7----3---------5--|

|---------------------------------|
|---------------------------------|
|-----------------3-3-3-3---------|
|-7-7-7-7-3-3-3-3-3-3-3-3-5-5-5-5-|
|-7-7-7-7-3-3-3-3-1-1-1-1-5-5-5-5-|
|-7-7-7-7-3-3-3-3---------5-5-5-5-|

|-----------------------------------|
|-----------------------------------|
|-----------------------------------|
|-10-/12-12-12--10/12-12-12-7-7-7-7-|Repeat x3
|-10-/12-12-12--10/12-12-12-7-7-7-7-|
|-10-/12-12-12--10/12-12-12-7-7-7-7-|

|-------------------------------|
|-------------------------------|
|-------------------------------|
|-8-8-8-8-8-8-8-8-8-8-8-8-8-8-8-|
|-8-8-8-8-8-8-8-8-8-8-8-8-8-8-8-|
|-8-8-8-8-8-8-8-8-8-8-8-8-8-8-8-|

|-------------------|
|-------------------|
|-------------------|
|-10---12---10---12-|
|-10---12---10---12-|
|-10---12---10---12-|

Thats it. It should be mostly accurate. Sorry i didnt know what to call each part, this 
has so many parts. Enjoy
comments
We did not receive enough feedback on this tab! Please rate:
print report bad tab
1 2 3 4 5
4 comments total. Showing first comments.
0 reply
bindestrick wrote on July 14 2009, 03:32 pm

i dont check this :(

0 reply
EvilDomo wrote on July 21 2009, 02:30 pm

Is this in Drop D?

0 reply
DQ32 wrote on October 4 2009, 10:45 pm

yup. =P

I want to post or [tab]
guest
You may want to rate the tab now too:
select rating
Please do not post tabs as comments. Select "correction" instead!