Oops, an error
Loading. Please wait.

Infrared Bass Tab

version 1
version 1

Whole song

Interactive

2,822 views 6 this week
no commentswrite comment
1 2 3 4 5
1 last vote to show rating
add to favorites
launch autoscroll
font size
0
reset
guitar tuner
Autoscroll
slow
fast
+/-
esc
set tempo
stop
Help us to improve Ultimate-Guitar.com Take our survey!
×
Author
Difficulty
novice
Ifrared Bass Tab
Strike Anywhere

Standard Tuning
 
~: hold note   *: mute note /: slide up \:slide down

G:---------------------------------------------------------------  :
D:---------------------------------------------------------------  :
A:-2-2222-4-4-4-4--2-2222-4-4-4-4--0-0000-7-7-7-7-0-0000-7-7-7-7-  :
E:---------------------------------------------------------------  :
                                                                   :x2 Intro
G:-------------------------------------------------------2-4-2-1-  :
D:---------------------------------------------------2-4--------2  :
A:-2-2222-4-4-4-4--2-2222-4-4-4-4--0-0000-7-7-7-7--0-------------  :
A:---------------------------------------------------------------  :

skip the last bass line at the end of the intro and end the intro
on 
  
           A:-0-0000-7-7-7-7--0~

G:---------------------------------------------------------------  :
D:---------------------------------------------------------------  : VERSE
A:--------7-7----------7-7----------7-7------------7-7-----------  : 
E:---9-9-9---7-7--9-9-9---7-7--5-5-5---7-7--5-5-5-5--------------  :  x3

G:---------------------------------------------------------------  : End
D:---------------------------------------------------------------  : verse
A:---------------------------------------------------------------  : on
E:---5-5-5-5-5-5-5-5-7-7-7-7-7-7-7-7-----------------------------  : this

G:---------------------------------------------------------------  :
D:---------------------------------------------------------------  :Pre-
A:----------7~ ------------------7~ -----------------------------  :Chorus
E:-5~ --9~ -----7~ ----5~ --9~ ------7777777777 (fast)-----------  :

G:---------------------------------------------------------------  :
D:---------------------------------------------------------------  :
A:--------------------------7777777777777------------------------x2:
E:-55555555555-999999999999---------------7777777777777----------  :
                                                                   :
G:----------------------------------------------------2-4-2-1----  :
D:-------------------------------------------------2-4-------2---  : CHORUS
A:-2-2222-4-4-4-4--0-0000-7-7-7-7-2-2222-4-4-4-4-0---------------  :
E:---------------------------------------------------------------  :
                                                                   :
G:---------------------------------------------------------------  :
D:---------------------------------------------------------------  :
A:-2-2222-4-4-4-4--0-0000-7-7-7-7--------------------------------  :
E:--------------------------------7-***-7-***-777*777*777*777----  :

G:---------------------------------------------------------------  :Inter-
D:---------------------------------------------------------------  :lude
A:---------------------------------------------------------------  : x4
E:-9-9-9---9\00000000--9--9--9--9\00000000-----------------------  :



Order:

Intro
verse
endverse
pre chorus
chorus
verse
pre chorus
chorus
interlude
end with pre chorus
Suggest correction
Give kudos to tab author, rate the tab!
1 2 3 4 5
comments
print report bad tab
guest
You may want to rate the tab now too:
select rating
Wanna post a correction for this tab? Suggest correction