Oops, an error
Loading. Please wait.

Instinct Bass Tab

931 views 3 this week
no commentswrite comment
1 2 3 4 5
please rate
add to favorites
launch autoscroll
font size
0
reset
guitar tuner
Autoscroll
slow
fast
+/-
esc
set tempo
stop
Help us to improve Ultimate-Guitar.com Take our survey!
×
Author
Artist: Strike Anywhere
Song: Instinct

Standard Tuning
I mess up with the picking but if you know the song it'll be ok.

Intro (No bass)

Verse 1
G|---------------------------------------|
D|---------------------------------------| x2
A|---------------------------------------|
E|--777-777-555-555-333-333-333-333------|

G|-----------------------------------------|
D|-----------------------------------------|
A|------------------555-555----------------|
E|--777-777-555-555---------333-333--------|

G|------------------------------------------|
D|--------------------------555-75----------|
A|------------------555-555-------5---------|
E|--777-777-555-555-------------------------|

Chorus part 1 (We go part)
G|------------------------------------------|
D|--------------------------555-75----------|
A|------------------555-555-------5---------|x2
E|--777-777-555-555-------------------------|

Chorus part 2 (So I write this words...)
G|------------------------------------|
D|----------777-777---------55-544-4--|
A|------------------555-555---------5-|
E|--777-777---------------------------|

G|------------------------------------|
D|----------777-777---------555-555---|
A|------------------555-555-----------|
E|--777-777---------------------------|

Verse 2
G|---------------------------------------|
D|---------------------------------------| 
A|---------------------------------------|
E|--777-777-555-555-333-333-333-333------|

G|---------------------------------------|
D|------------------------------57-------| 
A|--------------------------------5------|
E|--777-777-555-555-333-333-333----------|

G|-----------------------------------------|
D|-----------------------------------------|
A|------------------555-555----------------|
E|--777-777-555-555---------333-333--------|

G|------------------------------------------|
D|--------------------------555-75----------|
A|------------------555-555-------5---------|
E|--777-777-555-555-------------------------|

Chorus part 1 (We go part)
G|------------------------------------------|
D|--------------------------555-75----------|
A|------------------555-555-------5---------|x2
E|--777-777-555-555-------------------------|

Chorus part 2 (So I write this words...)--- listen well
G|------------------------------------|
D|----------777-777-10810--545-754----|    10=ten
A|------------------------------------|
E|--777-777---------------------------|

G|------------------------------------|
D|----------777-777---------5-(hold)--|
A|------------------555-555-----------|
E|--777-777---------------------------|
Suggest correction
Give kudos to tab author, rate the tab!
1 2 3 4 5
comments
print report bad tab
guest
You may want to rate the tab now too:
select rating
Wanna post a correction for this tab? Suggest correction