Oops, an error
Loading. Please wait.

Laughter In A Police State Tab

763 views 1 this week
no commentswrite comment
1 2 3 4 5
accurate
x 1
add to favorites
launch autoscroll
font size
0
reset
how to read this tab
guitar tuner
Tab Pro tools
  • play this tab
  • loop segment
  • change instrument
  • show fretboard
  • metronome
Autoscroll
slow
fast
+/-
esc
set tempo
stop
Contributor
Laughter in a Police State


e---------------------------------------------|
B---------------------------------------------|
G--9~-7-7-9---7-7-9---7-7-9---9-9-9-9-9-9\----|
D--9~-7-7-9---7-7-9---7-7-9---9-9-9-9-9-9\----|
A--7~-5-5-7---5-5-7---5-5-7---7-7-7-7-7-7\----|
E---------------------------------------------|


   m_m     m_m     m_m     m_m
e------------------------------------|
B------------------------------------| x4
G------------------5-5-5---4-4-4-----|
D--2-2-2---5-5-5---5-5-5-x-4-4-4-x---|
A--2-2-2-x-5-5-5-x-3-3-3-x-2-2-2-x---|
E--0-0-3-x-3-3-3-x-------------------|


e---------------------------------------------------|
B------------------3----------3---------3-----------| x2
G--7/9---------------4----------4-4-------4-4--9-7--|
D--7/9---10-9---5---------5-5-------5-5--------9-7--|
A--5/7-7--------5---------3-3-------3-3--------7-5--|
E---------------3-----------------------------------|


 m_______________________________m
e----------------------------------|
B----------------------------------|
G-9-9-9-9-9-9-9-9---7-7-7----------| x4
D-9-9-9-9-9-9-9-9-x-7-7-7-x-5-5-5--|
A-7-7-7-7-7-7-7-7-x-5-5-5-x-5-5-5--|
E---------------------------3-3-3--|

  m__m   m__m   m__m   m__m
e------------------------------|
B----------------------4-4-4---|
G-----0---------5-5-5--4-4-4---| x4
D-2-2-2--5-5-5--5-5-5--2-2-2---|
A-2-2-2--5-5-5--3-3-3----------|
E-0-0-0--3-3-3-----------------|


e---------------------------------------------------|
B------------------3----------3---------3-----------| x2
G--7/9---------------4----------4-4-------4-4--9-7--|
D--7/9---10-9---5---------5-5-------5-5--------9-7--|
A--5/7-7--------5---------3-3-------3-3--------7-5--|
E---------------3-----------------------------------|

                         m_____m
e------------------------------------|
B------------------------------------|
G-7/9----------------------------0---|
D-7/9-------------5------2-2-2-2-2---|
A-5/7-------------5------2-2-2-2-2---|
E-----------------3------0-0-0-0-----|

   m__m   m__m    m__m   m__m
e--------------------------------|
B--------------------------------| x4
G------0------0------------------|
D--2-2-2--2-2-2---5-5-5--5-5-5---|
A--2-2-2--2-2-2---5-5-5--5-5-5---|
E--0-0----0-0-----3-3-3--3-3-3---|


e--------------------------|
B--------------------------|
G--------0--0--------------| x4
D--2-2-2-2--2--5-5-5-5--5--|
A--2-2-2-2--2--5-5-5-5--5--|
E--0-0-0-------3-3-3-3--3--|


e----------------------------------------------|
B----------------------------------------------|
G--7-7-9--7-7-9--7-7-9--7-7-9-9-9-9-9--7-7-9---|
D--7-7-9--7-7-9--7-7-9--7-7-9-9-9-9-9--7-7-9---|
A--5-5-7--5-5-7--5-5-7--5-5-7-7-7-7-7--5-5-7---|
E----------------------------------------------|
comments
We did not receive enough feedback on this tab! Please rate:
print report bad tab
1 2 3 4 5
I want to post or [tab]
guest
You may want to rate the tab now too:
select rating
Please do not post tabs as comments. Select "correction" instead!