Oops, an error
Loading. Please wait.

Postcards From Home Tab

698 views 1 this week
no commentswrite comment
1 2 3 4 5
please rate
add to favorites
launch autoscroll
font size
0
reset
how to read this tab
guitar tuner
Tab Pro tools
  • play this tab
  • loop segment
  • change instrument
  • show fretboard
  • metronome
Autoscroll
slow
fast
+/-
esc
set tempo
stop
Difficulty
intermediate
hey this is my first tab ever. not 100% right but close to it I think. I have only
tabbed for one guitar which is decent enough if covering with one guitarist.
Please remember to rate, comment & enjoy:)


  Verse
e|---------------------------------------------------------------------|
b|---------------------------------------------------------------------|
g|-9999999999999999-5555555555555555-------------------5555555555555555|
d|-9999999999999999-5555555555555555-5555555555555555--5555555555555555| x2
a|-7777777777777777-3333333333333333-5555555555555555--3333333333333333|
E|-----------------------------------3333333333333333------------------|
pm  ...............  ...............  ...............   ...............

  Pre-chorus
e|-------------------------------------------------------------------|
b|-------------------------------------------------------------------|
g|-999999999999-555555-444444-777777-555555--------5/5/4/5-----------|
d|-999999999999-555555-444444-777777-555555-555555-5/5/4/5-----------|
a|-777777777777-333333-222222-555555-333333-555555-7/3/2/3-----------|
E|------------------------------------------333333-------------------|

e|-------------------------------------------------------------------|
b|-------------------------------------------------------------------|
g|-999999999999-555555-444444-777777-555555--------5/5/4/5-----------|
d|-999999999999-555555-444444-777777-555555-555555-5/5/4/5-----------|
a|-777777777777-333333-222222-555555-333333-555555-7/3/2/3-----------|
E|------------------------------------------333333-------------------|
pm  ...........

Half chorus (no singing)
e|-----------------------------------|
b|-----------------------------------|
g|-777777777777-999999999999---------|
d|-777777777777-999999999999---------|
a|-555555555555-777777777777---------|
E|-----------------------------------|

Verse 2
e|-------------------------------------------------------------------|
b|-------------------------------------------------------------------|
g|------------555555555555---------------555555555555----------------|
d|-2222222222-555555555555-555555555555--555555555555----------------|
a|-2222222222-333333333333-555555555555--333333333333----------------|
E|-0000000000--------------333333333333------------------------------|

e|--------------------------------------------------------------------------|
b|--------------------------------------------------------------------------|
g|-12-12-12/14-14-14/16-16-16/17-17-17-555555555555--------------55555555555|
d|--x--x--x--x--x--x--x--x--x--x--x--x-555555555555-555555555555-55555555555|
a|-10-10-10/12-12-12/16-16-16/17-17-17-333333333333-555555555555-33333333333|
E|--------------------------------------------------333333333333------------|
   ^_________________________________^
   if you like you can play 9 for this bit
                            9
                            7


 Pre-chorus
e|-------------------------------------------------------------------|
b|-------------------------------------------------------------------|
g|-999999999999-555555-444444-777777-555555--------5/5/4/5-----------|
d|-999999999999-555555-444444-777777-555555-555555-5/5/4/5-----------|
a|-777777777777-333333-222222-555555-333333-555555-7/3/2/3-----------|
E|------------------------------------------333333-------------------|

e|-------------------------------------------------------------------|
b|-------------------------------------------------------------------|
g|-999999999999-555555-444444-777777-555555--------5/5/4/5-----------|
d|-999999999999-555555-444444-777777-555555-555555-5/5/4/5-----------|
a|-777777777777-333333-222222-555555-333333-555555-7/3/2/3-----------|
E|------------------------------------------333333-------------------|
pm  ...........

 Chorus. not correct but just mess around with these notes and it should be alright
e|-------------------------------------------------------------------|
b|-------------------------------------------------------------------|
g|-0-0-0-0-0-0-0-0-0-0-0-0-0-0-0-0-0-0-0-0-0-0-0-0-------------------|
d|-7-7-7-7-7-7-9-9-9-9-9-9-4-4-4-4-4-4-5-5-5-5-5-5-------------------| x4
a|-5-----------7-----------2-----------3-----------------------------|
E|-------------------------------------------------------------------|

e|----------------------------|
b|----------------------------|
g|----------------------------|
d|-5555555555555555-----------|
a|-5555555555555555-----------|
E|-3333333333333333-----------|
pm ........

 Outro
e|-------------------------------------------------------------------|
b|-------------------------------------------------------------------|
g|-777777-999999-444444-555555---------------------------------------|
d|-777777-999999-444444-555555---------------------------------------| x7
a|-555555-777777-222222-333333---------------------------------------|
E|-------------------------------------------------------------------|

e|-------------------------------------------------------------------|
b|-------------------------------------------------------------------|
g|-777777-999999-444444-555555555555555555---------------------------|
d|-777777-999999-444444-555555555555555555---------------------------|
a|-555555-777777-222222-333333333333333333---------------------------|
E|-------------------------------------------------------------------|


e|-------------------------------------------------------------------|
b|-------------------------------------------------------------------|
g|-777777-999999-444444-555555---------------------------------------|
d|-777777-999999-444444-555555---------------------------------------| x3
a|-555555-777777-222222-333333---------------------------------------|
E|-------------------------------------------------------------------|

e|-------------------------------------------------------------------|
b|-------------------------------------------------------------------|
g|-777777-999999-5~--------------------------------------------------|
d|-777777-999999-5~--let ring out------------------------------------|
a|-555555-777777-3~--------------------------------------------------|
E|-------------------------------------------------------------------|
comments
We did not receive enough feedback on this tab! Please rate:
print report bad tab
1 2 3 4 5
I want to post or [tab]
guest
You may want to rate the tab now too:
select rating
Please do not post tabs as comments. Select "correction" instead!