Oops, an error
Loading. Please wait.

Prisoner Echoes Tab

1,719 views 1 this week
no commentswrite comment
1 2 3 4 5
please rate
add to favorites
launch autoscroll
font size
0
reset
how to read this tab
guitar tuner
Tab Pro tools
  • play this tab
  • loop segment
  • change instrument
  • show fretboard
  • metronome
×
Best way to learn
"Prisoner Echoes"
Autoscroll
slow
fast
+/-
esc
set tempo
stop
Contributor
----------------------------------------------------------------------------
                        Prisoner Echoes - Strike Anywhere
----------------------------------------------------------------------------
Band:   Strike Anywhere
Song:   Prisoner Echoes
Album:  Dead FM

Tabbed by: NoTrigger89
Email: stfuplease@freenet.de

Tuning: Standard


so this is my first tab i have done so far. i think its 100% correct.
but if something is wrong, feel free to send me a mail to correct me
and i will fix it.

you can use this tab for the acoustic version of the song too!
its the same.

have fun!



Intro:
e|x-x-x-x------------------------------------------------------------------|
B|x-x-x-x------------------------------------------------------------------|
G|x-x-x-x---777--777-------------------------------------------------------|
D|x-x-x-x-7-7777-7774-2224-22222222----------------------------------------|
A|x-x-x-x-7-5557-5554-2224-22222222----------------------------------------|
E|x-x-x-x-5----5----2-0002-00000000----------------------------------------|


Verse1(part1):
e|-------------------------------------------------------------------------|
B|-------------------------------------------------------------------------|
G|----------777-----------777----------------------------------------------|
D|777777777-777-777777777-777-444444444-222-444444444-222------------------|
A|777777777-555-777777777-555-444444444-222-444444444-222------------------|
E|555555555-----555555555-----222222222-000-222222222-000------------------|

Verse1(part2):
e|-------------------------------------------------------------------------|
B|-------------------------------------------------------------------------|
G|------------777--------------777-----------------------------------------|
D|77-777-777-7777--77-777-777-7777--44-444-444-4222--44-444-444-4222-------|
A|77-777-777-7555--77-777-777-7555--44-444-444-4222--44-444-444-4222-------|
E|55-555-555-5-----55-555-555-5-----22-222-222-2000--22-222-222-2000-------|

Pre-Chorus:
e|-------------------------------------------------------------------------|
B|-------------------------------------------------------------------------|
G|---------------------7777777---------------------------------------------|
D|7777777777777-444444-7777777---------------------------------------------|
A|7777777777777-444444-5555555---------------------------------------------|
E|5555555555555-222222-----------------------------------------------------|

e|-----------------------------------------------------------------------|
B|-----------------------------------------------------------------------|
G|---------------------777777777-7777------------------------------------|
D|7777777777777-444444-777777777-7777------------------------------------|
A|7777777777777-444444-555555555-5555------------------------------------|
E|5555555555555-222222--.-.-.-.------------------------------------------|


Chorus1:
e|-----------------------------------------------------------------|\
B|-----------------------------------------------------------------| \
G|---------------------7777777-------------------------------------|   x4
D|7777777777777-444444-7777777-------------------------------------|
A|7777777777777-444444-5555555-------------------------------------| /
E|5555555555555-222222---------------------------------------------|/

Part Between Chorus and Verse 2:
e|-------------------------------------------------------------------------|
B|-------------------------------------------------------------------------|
G|------------777--------------777-----------------------------------------|
D|77-777-777-7777--77-777-777-7777--44-444-444-4222--44-444-444-4222-------|
A|77-777-777-7555--77-777-777-7555--44-444-444-4222--44-444-444-4222-------|
E|55-555-555-5-----55-555-555-5-----22-222-222-2000--22-222-222-2000-------|

Verse2(part1):
e|-------------------------------------------------------------------------|
B|-------------------------------------------------------------------------|
G|------------777--------------777-----------------------------------------|
D|77777777777-777--77777777777-777--44444444444-222--44444444444-222-------|
A|77777777777-555--77777777777-555--44444444444-222--44444444444-222-------|
E|55555555555------55555555555------22222222222-000--22222222222-000-------|
   ....  ..         ....  ..         ....  ..         ....  ..  

Verse2(part2):
e|-------------------------------------------------------------------------|
B|-------------------------------------------------------------------------|
G|------------777--------------777-----------------------------------------|
D|77-777-777-7777--77-777-777-7777--44-444-444-4222--44-444-444-4222-------|
A|77-777-777-7555--77-777-777-7555--44-444-444-4222--44-444-444-4222-------|
E|55-555-555-5-----55-555-555-5-----22-222-222-2000--22-222-222-2000-------|


Pre-Chorus:
e|-------------------------------------------------------------------------|
B|-------------------------------------------------------------------------|
G|---------------------7777777---------------------------------------------|
D|7777777777777-444444-7777777---------------------------------------------|
A|7777777777777-444444-5555555---------------------------------------------|
E|5555555555555-222222-----------------------------------------------------|

e|-------------------------------------------------------------------------|
B|-------------------------------------------------------------------------|
G|---------------------777777777-7777--777777777-7777----------------------|
D|7777777777777-444444-777777777-7777--777777777-7777----------------------|
A|7777777777777-444444-555555555-5555--555555555-5555----------------------|
E|5555555555555-222222--.-.-.-.---------.-.-.-.----------------------------|


Chorus2:
e|-----------------------------------------------------------------|\
B|-----------------------------------------------------------------| \
G|---------------------7777777-------------------------------------|   x4
D|7777777777777-444444-7777777-------------------------------------|
A|7777777777777-444444-5555555-------------------------------------| /
E|5555555555555-222222---------------------------------------------|/


Bridge:
e|-----0----0---------0---------------------------------------------|
B|-----------2-------------223332-----------------------------------|
G|---2----2---2-----2------222222--2-222-22-2222----------------7-7-|
D|-------------------------222222--2-222-22-2222--44444444-2222-7-7-|
A|-0----0------------------000000--0-000-00-0000--44444444-2222-5-5-|
E|----------------2-------------------------------22222222-0000-----|
                                                  ........ ....

Chorus3:  dont let the first chord ring out!                        
e|------------------------------------------------------------------|
B|------------------------------------------------------------------|
G|---------------------77777777-----------------------7777777-------|
D|7--------------------77777777--77-777-77-777-44-444-7777777-------|
A|7--------------------55555555--77-777-77-777-44-444-5555555-------|
E|5------------------------------55-555-55-555-22-222---------------|


e|------------------------------------------------------------------|\
B|------------------------------------------------------------------| \
G|---------------------7777777--------------------------------------|   x2
D|7777777777777-444444-7777777--------------------------------------|
A|7777777777777-444444-5555555--------------------------------------| /
E|5555555555555-222222----------------------------------------------|/


Outro:
e|------------------------------------------------------------------|
B|------------------------------------------------------------------|
G|---------777-----------777----------------------------------------|
D|7-777777-777--7-777777-777--4-222--4--2---------------------------|
A|7-777777-555--7-777777-555--4-222--4--2--ring out !!!-------------|
E|5-555555------5-555555------2-000--2--0---------------------------|



Please rate.



| /  slide up
| \  slide down
| h  hammer-on
| p  pull-off
| ~  vibrato
| +  harmonic
| x  Mute note (Ghost note)
| .  Palm Mute
============================================================================
comments
We did not receive enough feedback on this tab! Please rate:
print report bad tab
1 2 3 4 5
I want to post or [tab]
guest
You may want to rate the tab now too:
select rating
Please do not post tabs as comments. Select "correction" instead!