Oops, an error
Loading. Please wait.

Promise Tab

version 1
version 1

Whole song

415 views 1 this week
no commentswrite comment
1 2 3 4 5
please rate
add to favorites
launch autoscroll
font size
0
reset
how to read this tab
guitar tuner
Autoscroll
slow
fast
+/-
esc
set tempo
stop
Help us to improve Ultimate-Guitar.com Take our survey!
×
Author
---------------------------------------------------------------
The Promise - Strike Anywhere
---------------------------------------------------------------
Tabbed by: Malk  (i refuse to)

Tuning: Standard



--------------------------------------------------|
--------------------------------------------------|
7~~-----------------------------------------------|
7~~---pick scrape---------------------------------|
5~~-----------------------------------------------|
--------------------------------------------------|

INTRO

------------------------------|(x2)
------------------------------|
77777-7-77777-----------44444-|
77777-5-77777-77777-555-44444-|
55555---55555-77777-555-22222-|
--------------55555-333-------|

VERSE

------------------------------|(x2)
------------------------------|
7777777777777-----------44444-|
7777777777777-777777777-44444-|
5555555555555-777777777-22222-|
--------------555555555-------|

-------------------------|(x2)
-------------------------|
--------------4444-77777-|
5555555555555-4444-77777-|
5555555555555-2222-55555-|
3333333333333------------|

------------------------------|(x2)
------------------------------|
7777777777777-----------44444-|
7777777777777-777777777-44444-|
5555555555555-777777777-22222-|
--------------555555555-------|

-------------------------|(x2)
-------------------------|
--------------4444-77777-|
5555555555555-4444-77777-|
5555555555555-2222-55555-|
3333333333333------------|

CHORUS
 ..    ..   ..    ..   ..    ..   ..    ..
---------------------------------------------|(x2)
---------------------------------------------|
-44-4--44-4------------77-7--77-7------------|
-44-4--44-4-55-5--55-5-77-7--77-7-77-7--77-7-|
-22-2--22-2-55-5--55-5-55-5--55-5-77-7--77-5-|
------------33-3--33-3------------55-5--55-5-|

INTRO

VERSE

CHORUS

BRIDGE???

INTRO
Suggest correction
Give kudos to tab author, rate the tab!
1 2 3 4 5
comments
print report bad tab
guest
You may want to rate the tab now too:
select rating
Please do not post tabs as comments. Select "correction" instead!