Oops, an error
Loading. Please wait.

To The World Chords

version 1
version 1

Whole song

1,677 views 3 this week
1 commentread comment
1 2 3 4 5
accurate
x 3
add to favorites
launch autoscroll
font size
0
reset
transpose
0
reset
display chords
guitar tuner
Tab Pro tools
  • play this tab
  • loop segment
  • change instrument
  • show fretboard
  • metronome
×
Best way to learn
"To The World"
Autoscroll
slow
fast
+/-
esc
set tempo
stop
To The World
by Strike Anywhere
www.strikeanywhere.com

transcribed by Christian Macht
http://tzatziki.deviantart.com



e|--------------------------------------------------------------------------|
b|--------------------------------------------------------------------------|
g|---------------------------------7-7-7-7-7-7-7-7--------------------------|
d|-7-7-7-7-7-7-7-7-3-3-3-3-3-3-3-3-7-7-7-7-7-7-7-7-3-3-3-3-3-3-3-3----------|
a|-7-7-7-7-7-7-7-7-3-3-3-3-3-3-3-3-5-5-5-5-5-5-5-5-3-3-3-3-3-3-3-3----------|
e|-5-5-5-5-5-5-5-5-1-1-1-1-1-1-1-1-----------------1-1-1-1-1-1-1-1----------|
pm . . . . . . . . . . . . . . . . . . . . . . . . . . . . . . . .

e|--------------------------------------------------------------------------|
b|--------------------------------------------------------------------------|
g|---------------------------------7-7-7-7-7-7-7-7-10-10-10-10-10-10--------|
d|-7-7-7-7-7-7-7-7-3-3-3-3-3-3-3-3-7-7-7-7-7-7-7-7-10-10-10-10-10-10--------|
a|-7-7-7-7-7-7-7-7-3-3-3-3-3-3-3-3-5-5-5-5-5-5-5-5-8--8--8--8--8--8---------|
e|-5-5-5-5-5-5-5-5-1-1-1-1-1-1-1-1------------------------------------------|
pm . . . . . . . . . . . . . . . . . . . . . . . . . . . . . . . .
(once again without pm)


e|--------------------------------------------------------------------------|
b|--------------------------------------------------------------------------|
g|-------------------------------------7-7-7-7--9--10-10-10-10-10-10--------|
d|-5/7--7-7--7-7-7---5/7--7-7--7-7-7---7-7-7-7--9--10-10-10-10-10-10--------|
a|-5/7--7-7--7-7-7---5/7--7-7--7-7-7---5-5-5-5--7--8--8--8--8--8--8---------|
e|-3/5--5-5--5-5-5---3/5--5-5--5-5-5----------------------------------------|
"Brothers in spirit.."


e|--------------------------------------------------------------------------|
b|--------------------------------------------------------------------------|
g|------------------------------------------------------10--10-10--10-10-10-|
d|-5/7---5/7---5/7---3--3-3--3-3-3----5/7---5/7---5/7---10--10-10--10-10-10-|
a|-5/7---5/7---5/7---3--3-3--3-3-3----5/7---5/7---5/7---8---8--8---8--8--8--|
e|-3/5---3/5---3/5---1--1-1--1-1-1----3/5---3/5---3/5-----------------------|
"I pledge allegiance.."

e|--------------------------------------------------------------------------|
b|--------------------------------------------------------------------------|
g|--------------------------------------------------------------------------|
d|-7-7-7-7-5-5-5-5-3-3-3-3-3-3-3-3------------------------------------------|
a|-7-7-7-7-5-5-5-5-3-3-3-3-3-3-3-3------------------------------------------|
e|-5-5-5-5-3-3-3-3-1-1-1-1-1-1-1-1------------------------------------------|
"I!.. pledge allegiance.."

Guitar 1
 x2

Guitar 2
e|--------------------------------------------------------------------------|
b|--------------------------------------------------------------------------|
g|-9--7-5-------------------------------------------------------------------|

Guitar 3
e|---8---8---8---8--7--7--7--7---10---10---10---10---12---12---12---12-|
b|-10--10--10--10--8--8--8--8--10---10---10---10---10---10---10---10---|
g|---------------------------------------------------------------------|


then

 x2



=> 
e|--------------------------------------------------------------------------|
b|--------------------------------------------------------------------------|
g|--------------------------------------------------------------------------|
d|-7-------5-------3----------------3~--3-3-3-3-3-3-3-3-3-3-3-3-3-3--\-5/7--|
a|-7-------5-------3----------------3~--3-3-3-3-3-3-3-3-3-3-3-3-3-3--\-5/7--|
e|-5-------3-------1----------------1~--1-1-1-1-1-1-1-1-1-1-1-1-1-1--\-3/5--|
"In justice in hunger united.."   ring pm . . . . . . . . . . . . .

e|--------------------------------------------------------------------------|
b|--------------------------------------------------------------------------|
g|--------------------------------------------------------------------------|
d|-5/7---5/7--3-3-3-3-3-3--5/7-7-7-7-7-7-7-5/7-7-7-7-7-7-7-5/7-7-7-7-7-7-7--|
a|-5/7---5/7--3-3-3-3-3-3--5/7-7-7-7-7-7-7-5/7-7-7-7-7-7-7-5/7-7-7-7-7-7-7--|
e|-3/5---3/5--1-1-1-1-1-1--3/5-5-5-5-5-5-5-3/5-5-5-5-5-5-5-3/5-5-5-5-5-5-5--|
                . .   . .      . . . . . .     . . . . . .     . . . . . .

e|--------------------------------------------------------------------------|
b|--------------------------------------------------------------------------|
g|----5----------------------------------------------------------------5----|
d|-3--5--5/7-7-7-7-7-7-7-5/7-7-7-7-7-7-7-5/7-7-7-7-7-7-7-----x2-----3--5--5-|
a|-3--3--5/7-7-7-7-7-7-7-5/7-7-7-7-7-7-7-5/7-7-7-7-7-7-7------------3--3--5-|
e|-1-----3/5-5-5-5-5-5-5-3/5-5-5-5-5-5-5-3/5-5-5-5-5-5-5------------1-----3-|
             . .   . . .     . .   . . .     . .   . . .

e|--------------------------------------------------------------------------|
b|--------------------------------------------------------------------------|
g|-----------------------------------------------------------------5-5-5-5--|
d|-5/7-7--7-7--7-7-7--5/7-7--7-7--7-7-7--5/7-7--7-7--7-7-7--3-3-3--5-5-5-5--|
a|-5/7-7--7-7--7-7-7--5/7-7--7-7--7-7-7--5/7-7--7-7--7-7-7--3-3-3--3-3-3-3--|
e|-3/5-5--5-5--5-5-5--3/5-5--5-5--5-5-5--3/5-5--5-5--5-5-5--1-1-1-----------|
"To my humanity.."

play twice, but second time end with
e|-------------|
b|-------------|
g|----5--------|
d|-3--5--7\\\--|
a|-3--3--7\\\--|
e|-1-----5\\\--|
comments
We did not receive enough feedback on this tab! Please rate:
print report bad tab
1 2 3 4 5
1 comment total.
0 reply
kungfuwikawika wrote on August 12 2013, 08:44 pm

Pretty much perfect dude. Keep 'em coming!

I want to post or [tab]
guest
You may want to rate the tab now too:
select rating
Please do not post tabs as comments. Select "correction" instead!