Oops, an error
Loading. Please wait.

Bad Touch tab

1,183 views 1 this week
4 commentsread comments
1 2 3 4 5
x 4
add to favorites
×
Save as Personal and add changes to this tab that will be seen only by you. Learn more ›
×
You can save this tab as Personal to edit and correct it or add notes. All changes will be seen only by you. Learn more »
launch autoscroll
font size
0
reset
how to read this tab
guitar tuner
edit
Autoscroll
slow
fast
+/-
esc
set tempo
stop
Author
Difficulty
This is Stroke 9's acoustic cover of "The Bad Touch," originally by The Bloodhound Gang. 
This is my first tab, so it might not be perfect.  Feel free to contact me if you have 
corrections - snapdragon1@hotmail.com

The Bad Touch - Stroke 9

Intro:
   C#m              Badd4             B                 A
|--------------4--------------0--------------------------------------------|
|----------5-----6----------------------7--------------------------5-------|
|-----6------6----------4-------4---------8--------8---------6-------6-----|
|---6---6-------------4---4-------4---------9----9---9-----7---7-------7---|
|-4-----------------2-------2--------------------------------------------7-|
|-------------------------------------7--------7--------5------------------|
Sweat baby, sweat baby, sex is a Texas drought
You and me do the kinds of things only Prince would sing about
So put your hands down my pants, I bet you’ll feel nuts
Yeah I’m Siskel, yes I’m Ebert, and you’re getting two thumbs up
You’ve had enough of two-hand touch, you want it rough, you’re out of bounds
I want you smothered, want you covered like my waffle house hash browns
Come quicker than Fed-Ex, never reach an apex, Coca-Cola stock
You are inclined to make me rise an hour early just like daylight savings time

Chorus:
|-------------------|
|---5---4-----------|
|---6---4---8---6---|
|---6---4---9---7---|
|---4---2---9---7---|
|-----------7---5---|
You and me baby aint nothin’ but mammals
So let’s do it like they do on the Discovery Channel
You and me baby aint nothin’ but mammals
So let’s do it like they do on the Discovery Channel

Post-Chorus Riff: (x2)
   C#m                   Badd4                 B                        A
|--4---4-4--5-4-4-5-4-|--4---4-4--5-4-4-5-4-|--7--4---4-4--5-4-4-5-4-|--5--|
|---------------------|---------------------|------------------------|--5--|
|---------------------|---------------------|------------------------|--6--|
|---------------------|---------------------|------------------------|--7--|
|---------------------|---------------------|------------------------|--7--|
|---------------------|---------------------|------------------------|--5--|

Love, the kind you clean up with a mop and bucket
Like the lost catacombs of Egypt, only God knows where we stuck it
Hieroglyphics, let me be Pacific, I wanna go down in your south seas
But I got this notion that the motion of your ocean meets small craft advisories
So if I capsize on your thighs, high tide, B-5, you sunk my battleship
Please turn me on, I’m Mr. Coffee with an automatic drip
So show me yours, I’ll show you mine, tool time, you'll Lovett just like Lyle
We can do it doggy-style so we can both watch X-Files

Chorus

Get horny now

Post-Chorus Riff (x3)

Chorus

            
            
Suggest correction
Creating personal tab
Creating personal tab
You can edit any tab online and save it as your Personal.

You can edit, replace or remove any tab part or add personal notes – all changes will be seen only by you.

Personal tabs can be accessed anytime from any device, even offline.
Learn more »
comments
print report bad tab
4 comments total. Showing first comments.
0 reply
[[.:jess:.]] 83 Feb 03, 2008 07:28 AM

Stroke 9 has NEVER done this song, this is by The Bloodhound Gang... 1*.

0 reply
izzieparr 10 Feb 12, 2009 09:55 AM

Jess you cleft! They say they did an acoustic cover in the blurb! You berk!

0 reply
snapdragon1 31 May 27, 2009 10:06 AM

Here is a video of Stroke 9 doing this song:
http://www.youtube.com/watch?v=4mEhLIfqLMs

guest
You may want to rate the tab now too:
select rating
Wanna post a correction for this tab? Suggest correction