Oops, an error
Loading. Please wait.

Ave Cesaria tab

by Stromae
3,469 views 42 this week
no commentswrite comment
1 2 3 4 5
1 last vote to show rating
add to favorites
×
Save as Personal and add changes to this tab that will be seen only by you. Learn more ›
×
You can save this tab as Personal to edit and correct it or add notes. All changes will be seen only by you. Learn more »
launch autoscroll
font size
0
reset
how to read this tab
guitar tuner
edit
Autoscroll
slow
fast
+/-
esc
set tempo
stop
                                         Ave Cesaria by Stromae


Hello, this song is in Bm but is much easier to play with a capo on the 2nd fret. I've tabbed the intro
whereas the rest of the song is chords.

Intro mini chord
e|---------------------3---|
B|-----------------3-------|
G|----------4--------------|
D|-------------------------|
A|----5--------------------|
E|-------------------------|

Intro diddle
"Am"                                    "Dm" Dmadd11 according to jamplay chord finder
                                        Da -dum             Da- dam     
e|----------------5-----------------5-|-----------------5---------------2--|
B|-------------5-----------------5----|--------------6---------------------|
G|----------5-----------------5-------|-----------7------------------------|   x1
D|--5-----------------5---------------|-5----------------------------------|
A|-------7-----------------7----------|--------5---------------------------|
E|------------------------------------|------------------------------------|

This is the progression for most of the song, the 7 chords are interchangeable and add flavour
    Am            Dm           E7             Am
e|----------------1---1---1------------------------------------------------|
B|--1-1--1-1--1---3---3---3-------------------1---1------------------------|
G|--2-2--2-2--2---2---2---2----1-1--1-1--1----2---2------------------------|
D|--2-2--2-2--2---0---0---0----0-0--0-0--0----2---2------------------------|
A|--0-0--0-0--0----------------2-2--2-2--2----0---0------------------------|
E|-----------------------------0-0--0-0--0---------------------------------|


    Am7           Dm7          G              Am
e|----------------1---1---1----3--3--3-3-3---------------------------------|
B|--1-1--1-1--1---1---1---1----3--3--3-3-3----1---1------------------------|
G|--0-0--0-0--0---2---2---2----0--0--0-0-0----2---2------------------------|
D|--2-2--2-2--2---0---0---0----0--0--0-0-0----2---2------------------------|
A|--0-0--0-0--0----------------2--2--2-2-2----0---0------------------------|
E|-----------------------------3--3--3-3-3---------------------------------|

You can also bar them
e|--5---5---------5--5----------3----3--------5---5-----------------------|
B|--5---5---------6--6----------3----3--------5---5-----------------------|
G|--5---5---------5--5----------4----4--------5---5-----------------------|
D|--7---7---------7--7----------5----5--------7---7-----------------------|
A|--7---7---------5--5----------5----5--------7---7-----------------------|
E|--5---5-----------------------3----3--------5---5-----------------------|

[Intro]


 
Evora, Evora
Evora, Evora
Evora, Evora
Evora, Evora

[Couplet 1]
      Am             Dm           E7                  Am
Les effluves de rhum dans ta voix, me font tourner la tête
      Am             Dm             G               Am  
Tu me fais danser du bout des doigts, comme tes cigarettes
    Am                Dm        E7                  Am
Immobile, comme à ton habitude,  mais es-tu devenue muette ?
    Am               Dm          G                     Am
Ou est-ce à cause des kilomètres, que tu ne me réponds plus...

[Refrain]
    Am             Dm    E7             Am
Evora,            Evora,  tu ne m'aimes plus ou quoi ?
    Am             Dm    G                Am
Evora,            Evora,  après tant d'années
    Am             Dm    E7          Am
Evora,            Evora,  une de perdue, c'est ça ?
    Am             Dm    G              Am
Evora,            Evora,  je te retrouverai, c'est sûr...

[Couplet 2]
        Am             Dm         E7                  Am
Souviens-toi de la première fois,  où nos regards s'étaient croisés
            Am           Dm             G           Am  
Même que ton oeil disait merde à l'autre, surtout à moi
              Am             Dm         E7                       Am
Mais pourquoi moi, alors que les autres  te trouvaient bien trop laide
             Am                Dm   G                   Am      
Peut-être que moi je suis trop bête, mais je sais t'écouter

[Refrain]
    Am             Dm    E7             Am
Evora,            Evora,  tu ne m'aimes plus ou quoi ?
    Am             Dm    G                Am
Evora,            Evora,  après tant d'années
    Am             Dm    E7          Am
Evora,            Evora,  une de perdue, c'est ça ?
    Am             Dm    G              Am
Evora,            Evora,  je te retrouverai, c'est sûr...

[Couplet 3]
  Am   Dm    E7                  Am
Ave Cesaria, chapeau pour la route à pieds
      Am    Dm        G               Am        
Nue est, et nue était, Diva aux pieds nus, restera
     Am    Dm     E7              Am
Et à vie Cesaria, et à la mort aussi
      Am        Dm     G                             Am 
Obrigado, tu embrigadas des millions de soldats dans ta patrie
             Am     Dm    E7                     Am
Donc garde à vous Cesaria, tu nous as tous quand même bien eus
           Am                   Dm      G               Am      
Ah tout le monde te croyait disparue,    mais tu es revenue
   Am    Dm     E7                      Am
Sacrée Cesaria,  quelle belle leçon d'humilité
   Am             Dm                 G               Am 
Malgré toutes ces bouteilles de rhum, tous les chemins mènent à la dignité

[Refrain]
Evora, Evora, tu ne m'aimes plus ou quoi ?
Evora, Evora, après tant d'années
Evora, Evora, une de perdue, c'est ça ?
Evora, Evora, je te retrouverai, c'est sûr...

[Chants]
Am   Dm      E7            Am
Oh Sodade... Sadadi di nha Cesaria...
Am   Dm      G             Am
Oh Sodade... Sadadi di nha Cesaria...

            
            
Suggest correction
Creating personal tab
Creating personal tab
You can edit any tab online and save it as your Personal.

You can edit, replace or remove any tab part or add personal notes – all changes will be seen only by you.

Personal tabs can be accessed anytime from any device, even offline.
Learn more »
Give kudos to tab author, rate the tab!
1 2 3 4 5
comments
print report bad tab
guest
You may want to rate the tab now too:
select rating
Wanna post a correction for this tab? Suggest correction