Oops, an error
Loading. Please wait.

Papaoutai chords

version 4
version 4

Whole song

Interactive

by Stromae
3,126 views 18 this week
no commentswrite comment
1 2 3 4 5
3 more votes to show rating
add to favorites
×
Save as Personal and add changes to this tab that will be seen only by you. Learn more ›
×
You can save this tab as Personal to edit and correct it or add notes. All changes will be seen only by you. Learn more »
launch autoscroll
font size
0
reset
transpose
0
reset
simplify chords
display chords
guitar tuner
edit
Autoscroll
slow
fast
+/-
esc
set tempo
stop
Strumming Is this strumming pattern correct? Yes No
Chorus (adapted) 117 bpm
1
 
&
 
2
 
&
 
3
 
&
 
4
 
&
 
Listen
Riff (adapté pour la guitare):
                1
eb|-------------|-------------------------------------------------|
Bb|-10---pb-----|-12-12----12-12----12----------------------------|
Gb|-/-----------|-------------------------------------------------|
Db|-/-----------|------------------------\12----------------12----|
Ab|-/-----------|-------------------------------------------------|
Eb|-------------|-------------------------------------------------|
    4  e  +  a    1  e  +  a  2  e  +  a  3  e  +  a  4  e  +  a  
                  Gb                      Ebm7

                                                    3
eb|-------------------------------------------------|-------------------------------------------------|
Bb|-12-12----12-12----12----------------------------|-12-12----12-12----12----------------------12----|
Gb|-------------------------------------------------|-------------------------------------------------|
Db|-------------------------9-----------9--99-9-/12-|------------------------\11----------------------|
Ab|-------------------------------------------------|-------------------------------------------------|
Eb|-------------------------------------------------|-------------------------------------------------|
    1  e  +  a  2  e  +  a  3  e  +  a  4  e  +  a    1  e  +  a  2  e  +  a  3  e  +  a  4  e  +  a  
    Absus4 (sus2)           Bbm                       Gb                      Cm7-5/Eb

                                                    5
eb|-------------------------------------------------|-------------------------------------------------|
Bb|----12----12-12----12----------------------------|-12-12----12-12----12----------------------------|
Gb|-------------------------------------------------|-------------------------------------------------|
Db|-------------------------9-----------9--99-9-/12-|------------------------\11----------------11/---|
Ab|-------------------------------------------------|-------------------------------------------------|
Eb|-------------------------------------------------|-------------------------------------------------|
    1  e  +  a  2  e  +  a  3  e  +  a  4  e  +  a    1  e  +  a  2  e  +  a  3  e  +  a  4  e  +  a  
    Absus4 (sus2)           Bbm                       Gb                      Cm7-5/Eb

                                                    7
eb|-------------------------------------------------|-------------------------------------------------|
Bb|-12-12----12-12----12----------------------------|-12-12----12-12----12----------------------12----|
Gb|-------------------------------------------------|-------------------------------------------------|
Db|-------------------------9-----------9--99-9-/12-|------------------------\11----------------------|
Ab|-------------------------------------------------|-------------------------------------------------|
Eb|-------------------------------------------------|-------------------------------------------------|
    1  e  +  a  2  e  +  a  3  e  +  a  4  e  +  a    1  e  +  a  2  e  +  a  3  e  +  a  4  e  +  a  
    Absus4 (sus2)           Bbm                       Gb                      Cm7-5/Eb

eb|-------------------------------------------------|
Bb|-12-12----12-12----12----------------------------|
Gb|-------------------------------------------------|
Db|-------------------------9-----------------------|
Ab|-------------------------------------------------|
Eb|-------------------------------------------------|
    1  e  +  a  2  e  +  a  3  e  +  a  4  e  +  a  
    Absus4 (sus2)           Bbm
 

Baissez les cordes pour que l'accordage soit Eb Ab Db Gb Bb Eb et on peut jouer Ebm/Bb comme x22000.
Quand on voit Absus4, on devrait jouer l'accord comme x02430 (Absus4sus2).


L'ORDRE: I C1 PR1 R INT1 C2 R INT2 PR2 PR3 R INT3 O


[INTRO]
Ebm/Bb Ebm Dbadd9 Bbm Gb/Bb Ab/C
Ebm/Bb Db  Dbadd9 Bbm Ebm   Db


[COUPLET 1]
Bbm                 Ab/Bb
Dites-moi d'où il vient
      Bbm              Ab/Bb
Enfin je saurais où je vais
      Bbm           Ab
Maman dit que lorsqu'on cherche bien
     G                Cm
On finit toujours par trouver
         Bbm                     Ebm/Bb
Elle dit qu'il n'est jamais très loin
           Bbm                 Ebm/Bb
Qu'il part très souvent travailler
      Ebm/Gb                  Gbmaj7
Maman dit   "travailler c'est bien"
           F                  Faug     F
Bien mieux qu'être mal accompagné, pas vrai?


[PRE-REFRAIN 1]
Bbm   Bbm/Ab      Gb
   Où est   ton papa?
   Cm7-5/Eb       Ab        Bbm
   Dis  -  moi où est ton papa?
Bbm     Bbm/Ab  Gb
   Sans même  devoir lui parler
      Cm7-5/Eb   Ab          Bbm
   Il sait    ce qu'il ne va pas
Gb          Ebm7
   Ah sacré pa - pa
   Ab               Bbm
   Dis-moi où es-tu caché? Ça doit
Gb          Ebm7
   faire au moins mille fois que j'ai
Ab        Bbm        n.c.
   Compté mes doigts,    hé


[REFRAIN]
Gb            Ebm7
      Où t'es,    papa où t'es?
Absus4        Bbm
      Où t'es,    papa où t'es?
Gb            Ebm7
      Où t'es,    papa où t'es?
Absus4                  Bbm
      Où t'es, où t'es, où papa, où t'es?
Gb            Ebm7
      Où t'es,    papa où t'es?
Absus4        Bbm
      Où t'es,    papa où t'es?
Gb            Ebm7
      Où t'es,    papa où t'es?
Absus4                  Bbm
      Où t'es, où t'es, où papa, où t'es?


[INTERLUDE 1] - utilisez le riff ou vous voudriez
Gb     Ebm7 | Absus4 Bbm |
Gb Cm7-5/Eb | Absus4 Bbm |
Gb Cm7-5/Eb | Absus4 Bbm |
Gb Cm7-5/Eb | Absus4 Bbm |


[COUPLET 2]
      Bbm   Ab/Bb
      Quoi, qu'on y croit ou pas
             Bbm             Ab/Bb
      Y aura bien un jour où on   y croira plus
         Bbm                  Ab/Bb
      Un jour ou l'autre on sera   tous papa
              Bbm            Ab/Bb
      Et d'un jour à l'autre on   aura disparu
      Ebm/Bb                Bbm        
      Se  -  rons-nous détestables?
      Ebm/Bb               Bbm
      Se  -  rons-nous admirables?
          Bbm          Ab/Bb
      Des géniteurs ou des  génies?
                 G/Bb                      Cm/Bb    Bbm
      Dites-nous qui donne naissance aux irresponsables?
               Ebm/Bb     Bbm
      Ah dites-nous  qui, tient,
                                 Ebm/Bb           Bbm
      Tout le monde sait comment on    fait les bébés
                                 Ab/Bb
      Mais personne sait comment on   fait des papas
         Gb/Bb                      Ab/Bb         F/Bb
      Mon  -  sieur Je-sais-tout en au - rait hérité, c'est ça
Ebm/Bb               Bbm
      Faut l'sucer d'son pouce ou quoi?
      Ebm/Bb              Bbm
      Dites-nous où c'est caché, ça doit
Ebm/Gb         Gbmaj7                  F                  n.c.
      Faire au moins mille fois qu'on a bouffé nos doigts,    hé


[REFRAIN]
Gb            Ebm7
      Où t'es,    papa où t'es?
Absus4        Bbm
      Où t'es,    papa où t'es?
Gb            Ebm7
      Où t'es,    papa où t'es?
Absus4                  Bbm
      Où t'es, où t'es, où papa, où t'es?
Gb            Ebm7
      Où t'es,    papa où t'es?
Absus4        Bbm
      Où t'es,    papa où t'es?
Gb            Ebm7
      Où t'es,    papa où t'es?
Absus4                  Bbm
      Où t'es, où t'es, où papa, où t'es?


[INTERLUDE 2] - utilisez le riff ou vous voudriez
Gb     Ebm7 | Absus4 Bbm |
Gb Cm7-5/Eb | Absus4 Bbm |
                     où t'es?
Gb Cm7-5/Eb | Absus4 Bbm |
Gb Cm7-5/Eb | Absus4 Bbm |


[PRE-REFRAIN 2]
 Gb       Ebm7
   Où est ton papa?
   Ab             Bbm
   Dis-moi où est ton papa?
 Gb            Ebm7
   Sans même devoir lui parler
      Ab               Bbm
   Il sait ce qu'il ne va pas
Gb          Ebm7
   Ah sacré pa - pa
   Ab               Bbm
   Dis-moi où es-tu caché? Ça doit
Gb          Ebm7
   faire au moins mille fois que j'ai
Ab        Bbm
   Compté mes doigts, hé


[PRE-REFRAIN 3]
 Gb       Ebm7
   Où est ton papa?
   Fm7            Bbm
   Dis-moi où est ton papa?
 Gb            Ebm7
   Sans même devoir lui parler
      Fm7              Bbm
   Il sait ce qu'il ne va pas
 Gb         Ebm7
   Ah sacré pa - pa
   Fm7              Bbm
   Dis-moi où es-tu caché? Ça doit
Gb          Ebm7
   faire au moins mille fois que j'ai
Ab        Bbm
   Compté mes doigts, hé


[REFRAIN]
Gb            Ebm7
      Où t'es,    papa où t'es?
Absus4        Bbm
      Où t'es,    papa où t'es?
Gb            Ebm7
      Où t'es,    papa où t'es?
Absus4                  Bbm
      Où t'es, où t'es, où papa, où t'es?
Gb            Ebm7
      Où t'es,    papa où t'es?
Absus4        Bbm
      Où t'es,    papa où t'es?
Gb            Ebm7
      Où t'es,    papa où t'es?
Absus4                  Bbm
      Où t'es, où t'es, où papa, où t'es?


[INTERLUDE 3] - utilisez le riff ou vous voudriez
Gb     Ebm7 | Absus4 Bbm |
Gb Cm7-5/Eb | Absus4 Bbm |
                     Où t'es?
Gb Cm7-5/Eb | Absus4 Bbm |
Gb Cm7-5/Eb | Absus4 Bbm |


[OUTRO]
Bbm Bbm/Ab Gbmaj7  | Ebm7 Ab7 Bbm   |
Bbm Bbm/Ab Gbmaj7  | Ebm7 Ab7 Bbm   |

Gb  Ebm9 | Ab7 Bbm |
Gb  Ebm9 | Ab7 Bbm |

            
            
Suggest correction
Creating personal tab
Creating personal tab
You can edit any tab online and save it as your Personal.

You can edit, replace or remove any tab part or add personal notes – all changes will be seen only by you.

Personal tabs can be accessed anytime from any device, even offline.
Learn more »
Give kudos to tab author, rate the tab!
1 2 3 4 5
comments
print report bad tab
guest
You may want to rate the tab now too:
select rating
Wanna post a correction for this tab? Suggest correction