Oops, an error
Loading. Please wait.

Circles Tab

1,067 views 1 this week
no commentswrite comment
1 2 3 4 5
2 more votes to show rating
add to favorites
launch autoscroll
font size
0
reset
how to read this tab
guitar tuner
Autoscroll
slow
fast
+/-
esc
set tempo
stop
Help us to improve Ultimate-Guitar.com Take our survey!
×
Author
Difficulty
intermediate
Circles By Strong Bad
Tabbed By Underdogg0


Standard Tuning, No Distortion


This is how I think it's played, It's not perfect, but no one tabbed the intro or solo, 
I thought i'd give it a try.


These are the 3 chords that are played throughout the song in order:
G, C, D

INTRO:

e-15---12-----------------------------------------------------------------|
B---------15-12----12-15-12-----------------------------------------------|
G---------------14----------14-12---14-12-------12-14^---14-12-------12---|
D-----------------------------------------12h14----------------12h14------|
A-------------------------------------------------------------------------|
E-------------------------------------------------------------------------|

SOLO:

e-------------------------------------------------15-12----12-15-12----------|
B----------------------------------------------15-------15----------15-12----|
G-------12-14^------------------------12----12----------------------------14-|
D-12h14---------14-12-------12-14--14----14----------------------------------|
A---------------------12-14--------------------------------------------------|
E----------------------------------------------------------------------------|

e---------------------------------------------------------------------------|
B-12------------------------------------------------------------------------|
G----14-12--------------------------------------12----------12-12-14-12-12--|
D----------14-12--------------------------12-14----14-12h14-----------------|
A----------------14-12--------------12h14-----------------------------------|
E----------------------15-12--12h15-----------------------------------------|

e----------------------15-12----15-12----15-12-------------------------------|
B-------12-------12h15-------15-------15-------15-12----------12-15-15-12----|
G-14-14----14-14-------------------------------------14-12-14-------------12-|
D----------------------------------------------------------------------------|
A----------------------------------------------------------------------------|
E----------------------------------------------------------------------------|

And if your playing lead, feel free to improvise with any of the G scales during the 
it'll sound great.
Suggest correction
Give kudos to tab author, rate the tab!
1 2 3 4 5
comments
print report bad tab
guest
You may want to rate the tab now too:
select rating
Wanna post a correction for this tab? Suggest correction