Oops, an error
Loading. Please wait.

Teen Girl Squad Tab

766 views 1 this week
1 commentread comment
1 2 3 4 5
please rate
add to favorites
launch autoscroll
font size
0
reset
how to read this tab
guitar tuner
Autoscroll
slow
fast
+/-
esc
set tempo
stop
Help us to improve Ultimate-Guitar.com Take our survey!
×
Difficulty
novice
Tabbed by:VanCamp
Email:vancamp91@hotmail.com

Tuning:E A D G B e (Only B and e are used)

e|--------------------------9-10-9--|
B|--9h10p9h10--11p9h11p9-9----------|
G|----------------------------------|
D|----------------------------------|
A|----------------------------------|
E|----------------------------------|

e|--------------------------9\12-9\12-9\12-9\12-9\12--| IT'S OVER!
B|--9h10p9h10--11p9h11p9-9--------------------------¤-|
G|----------------------------------------------------|
D|----------------------------------------------------|
A|--------------------------------------------------¤-|
E|----------------------------------------------------|

**This is the main theme of TGS played throughout each episode.So,if you'd like to play 
the actual song,you're gonna need to repeat this MANY times.
Suggest correction
Give kudos to tab author, rate the tab!
1 2 3 4 5
comments
print report bad tab
1 comment total.
0 reply
s0merand0mdude 124 wrote on August 12 2010, 05:46 pm

This doesn't sound anything like the theme. Either your guitar was out of tune when you made this, or your ear is off. I think it sounds more like:

e|---------------5---------------5/8-5/8-5/8-5/8-5/8--|
B|--5-6-8-6-5--8---8--5-6-8-6-5-----------------------|
G|---5-5-5-5---5-5-5---5-5-5-5------------------------|

guest
You may want to rate the tab now too:
select rating
Wanna post a correction for this tab? Suggest correction