Oops, an error
Loading. Please wait.

Analog Tab

version 1
version 1

Whole song

Interactive

4,744 views 1 this week
2 commentsread comments
1 2 3 4 5
accurate
x 3
add to favorites
launch autoscroll
font size
0
reset
how to read this tab
guitar tuner
Autoscroll
slow
fast
+/-
esc
set tempo
stop
Help us to improve Ultimate-Guitar.com Take our survey!
×
Author
Intro - Both guitars - play 4 times
E|-------------------------------|
B|-------------------------------|
G|-------------------------------|
D|-----------------------8-8-8-8-|
A|-5-7---0---1---0---1---6-6-6-6-|
D|-5-7---0---1---0---1-----------|


first 2 verses

                                                 last time
E|----------------------------------------------|---------------------|
B|----------------------------------------------|---------------------|
G|----------------------------------------------|---------------------|
D|-10-------13-------10-------13-------10----10-|-10-------13-------8-|
A|-8--8--8--8--8--8--8--8--8--8--8--8--8-----8--|-8--8--8--8--8--8--6-|
D|----------------------------------------------|---------------------|


Begining of First Verse 

E|----------------------------------------------------------------------------------------------------|
B|----------------------------------------------------------------------------------------------------|
G|----------------------10----------------------------------------------------------------------------|
D|-10----------------10----10-10 10-------------------------10--------10--------10--------10--------8-|
A|-8---------------8----------------8-8-8----------8-8-8----8-8-8-8-8-8-8-8-8-8-8-8-8-8-8-8-8-8-8-8-6-|
D|----------------------------------------10-10-10----------------------------------------------------|


Chorus

E|----------------------------------------------------------------|
B|----------------------------------------------------------------|
G|----------------------------------------------------------------|
D|-----------------6------------------------------6-------8-------|
A|-3---------------4---------------3--------------4-------6-------|
D|-3-------------------------------3------------------------------|

E|-----------------------------------------------------------------|
B|-----------------------------------------------------------------|
G|-----------------------------------------------------------------|
D|-----------------6-------3-----------------------5---------------|
A|-3---------------4-------1-------6---------------3---------------|
D|-3-------------------------------6-------------------------------|


First Bridge

E|-----------------|
B|-----------------|
G|-----------------|
D|-----------------|
A|-3---3-3---3---3-|
D|-3---3-3---3---3-|


Second Verse 
                                                 Last Time
E|----------------------------------------------|-----------------------------------|
B|----------------------------------------------|-----------------------------------|
G|-10-------12-------13-------12-------10101010-|-13-------12-----------------------|
D|-10-------10-------10-------10-------10101010-|-10-------10-------8-8-8-8-8-8-8-8-|
A|-8--8--8--8--8--8--8--8--8--8--8--8--8-8-8-8--|-8--8--8--8--8--8--6-6-6-6-6-6-6-6-|
D|----------------------------------------------|-----------------------------------|


Second Bridge

E|---------------------------------------|
B|---------------------------------------|
G|---------------------------------------|
D|---------------------------------------|
A|---------------------------------------|
D|-3-3-3-333-3-3-333-3-3-333-3-3-333-4-1-|


Solo

E|------------------------------------------------------------------|
B|------------------------------------------------------------------|
G|---------------------------------10101010101010101010101010101010-|
D|-10101010101010101010101010101010---------------------------------|
A|------------------------------------------------------------------|
D|------------------------------------------------------------------|

E|---------------------------------------------------|
B|---------------------------------------------------|
G|----------------------------------8888888888888888-|
D|-11111111111111111111111111111111------------------|
A|---------------------------------------------------|
D|---------------------------------------------------|

E|----------------------------------------------------------------|
B|----------------------------------------------------------------|
G|----------------------------------------------------------------|
D|-101010101010101010101010-8888----------------------------------|
A|-------------------------------11111111111111111111111110101010-|
D|----------------------------------------------------------------|

E|---------------------------------------------------|
B|---------------------------------------------------|
G|---------------------------------------------------|
D|------------------10101010101010101010101010101010-|
A|-8888888888888888----------------------------------|
D|---------------------------------------------------|


End Of Solo

E|-------------------------------------|
B|-------------------------------------|
G|-------------------------------------|
D|----------6--------3--------5--------|
A|-3--------4--------1--------3--------|
D|-3-----------------------------------|
Suggest correction
Give kudos to tab author, rate the tab!
1 2 3 4 5
comments
print report bad tab
2 comments total.
0 reply
R-Man 10 wrote on May 5 2007, 06:25 am

a dickhead wrote this tab.

0 reply
pimpdaddjerome 10 wrote on September 18 2007, 01:21 pm

WTF?!? This is nowhere close!!

guest
You may want to rate the tab now too:
select rating
Please do not post tabs as comments. Select "correction" instead!