Oops, an error
Loading. Please wait.

Ashes Ashes Tab

1,660 views 1 this week
no commentswrite comment
1 2 3 4 5
please rate
add to favorites
launch autoscroll
font size
0
reset
how to read this tab
guitar tuner
Autoscroll
slow
fast
+/-
esc
set tempo
stop
Help us to improve Ultimate-Guitar.com Take our survey!
×
Copied, not tabbed by SOT!

Guitar Tab for AshesAshes


      Another Day In Paradise

   Copyright ?1996 - Strung Out


Intro Riff (0:00)

Jake:
  							   (2x)
d|------------------------------------------------------------|
A|-----10----10------13-------13-----8-----11-----10-----10---|
F|----9--9--9--9---12--12---12--12--7-7--10--10--9--9---9--9--|
C|---7-----7-----10-------10-------5----8-------7----7-7------|
G|------------------------------------------------------------|
D|------------------------------------------------------------|
-This intro above is played clean (Add some reverb)-

Rob (0:05):

d|------------------------------------------------------------|
A|------------------------------------------------------------|
F|------------------------------------------------------------|
C|---7-7...---------------------------------------------------|
G|---7-7...--------------------------------------77777777777--|
D|---5-5...--------------------------------------55555555555--|
						 ...........

Verse Riff (0:09)


Rob:
  	  	                  (2x)
d|-----------------------------------|
A|-10101010--1313131313-8-11-101010--|
F|--9-9-9-9--1212121212-7-10--9-9-9--|
C|--7-7-7-7--1010101010-5--8--7-7-7--|
G|-----------------------------------|
D|-----------------------------------|

Jake:
					       (2x)
d|------------------------------------------------|
A|------------------------------------------------|
F|------------------------------------------------|
C|------------------------------------------------|
G|--777--777--101010--101010--555--888--777--777--|
D|--555--555--8-8-8---8-8-8---333--666--555--555--|

Chorus Riff (0:18)


Jake:
	  				    (2x)
d|---------------------------------------------|
A|---------------------------------------------|
F|---------------------------------------------|
C|---------------------------------------------|
G|--7-7-7-7---7-7-7-77-10--7-7-7-7-7--333-555--|
D|--5-5-5-5-0h5-5-5-55--8--5-5-5-5-5--111-333--|
                                      ..  ..
Rob:
	  				    (2x)
d|---------------------------------------------|
A|------------------------------------666-888--|
F|------------------------------------555-777--|
C|------------------------------------333-555--|
G|--7-7-7-7---7-7-7-77-10--7-7-7-7-7-----------|
D|--5-5-5-5-0h5-5-5-55--8--5-5-5-5-5-----------|
                                      ..  ..

Octave Riff (0:26)


Jake:

d|--------------------------------------------------------|
A|----10----10-------13-------13-----8----11----10----10--|
F|-----x-----x--------x--------x-----x-----x-----x-----x--|
C|--77-7--77-7--1010-10--1010-10--55-5--88-8--77-7--77-7--|
G|--------------------------------------------------------|
D|--------------------------------------------------------|
    ..    ..     . .      . .     ..    ..    ..    ..
d|------------------------------------------------|
A|----10----10-------13-------13-----8-1010-9...--|
F|-----x-----x--------x--------x-----x--x-x-x-----|
C|--77-7--77-7--1010-10--1010-10--55-5--8-8-7...--|
G|------------------------------------------------|
D|------------------------------------------------|
    ..    ..     . .      . .     ..
Rob:

d|---------------------------------------------------|
A|----10----10----10----10----10----10---9/13-11-10--|
F|-----x-----x-----x-----x-----x-----x---x--x--x--x--|
C|--77-7--77-7--77-7--77-7--77-7--77-7---7/10--8--7--|
G|---------------------------------------------------|
D|---------------------------------------------------|
    ..    ..    ..    ..    ..    ..
d|-------------------------------------------------------|
A|----10----10----10----10----10----10--101010101010...--|
F|-----x-----x-----x-----x-----x-----x---x-x-x-x-x-x...--|
C|--77-7--77-7--77-7--77-7--77-7--77-7---7-7-7-7-7-7...--|
G|-------------------------------------------------------|
D|-------------------------------------------------------|
    ..    ..    ..    ..    ..    ..     . . . . . .

Verse Riff Repeated (0:34)


-Both Rob & Jake play the riff Jake played above (Two times palm muted, two times open). ->
Rob (0:47):

d|------------------|
A|------------------|
F|--7+-5+-----------|
C|--------7p5h7+----|
G|------------------|
D|------------------|

.

Chorus Riff Repeated (0:50)

Octave Riff Repeated (0:59)


-Jake plays his same riff from above, Rob plays what is below-
Rob:

d|---------------------------------------------------|
A|----10----10----10----10----10----10---9/13-11-10--|
F|-----x-----x-----x-----x-----x-----x---x--x--x--x--|
C|--77-7--77-7--77-7--77-7--77-7--77-7---7/10--8--7--|
G|---------------------------------------------------|
D|---------------------------------------------------|
    ..    ..    ..    ..    ..    ..
d|------------------------------------------------------------|
A|------------------------------------------------------------|
F|------------------------------------------------------------|
C|--77-7h9-99-9h10-1010-10h12-1212-12h14-1414-14h15-14-12-14--|
G|------------------------------------------------------------|
D|------------------------------------------------------------|
    .. .   .. .     . .  .     . .  .     . .  .

Verse Riff Repeated (1:07)

Chorus Riff #2 (1:24)


Jake & Rob:
				    (4x)
d|------------------------------------|
A|------------------------------------|
F|------------------------------------|
C|--77777777777777-5-77777777--10-9---|
G|--55555555555555-3-55555555---8-7---|
D|------------------------------------|

Breakdown Riff (1:40)


Jake & Rob:

d|--------------------------------------------------|
A|--------------------------------------------------|
F|--------------------------------------------------|
C|-------5-----------------------5------------------|
G|-77----3-77-----333-555--77----3-77------333-555--|
D|-55------55-----111-333--55------55------111-333--|
                  ..  ..                   ..  ..

Bridge Riff (1:49)


Jake & Rob:
		        (4x)
d|---------------------------|
A|---------------------------|
F|---------------------------|
C|--2222-5555-777777-10-9----|
G|--0000-3333-555555--8-7----|
D|---------------------------|

Rob's Solo (2:05)


				      (2x)
d|---------------------------------------|
A|---------------------------------------|
F|---7h999--7h999--7h999--10-10-10-10-9--|
C|---------------------------------------|
G|---------------------------------------|
D|---------------------------------------|

d|-----------------------------------------------------------------------|
A|-----------------------------------------------------------------------|
F|--9p7-7---------------------------------7h9---9p7-7---------------9p7--|
C|-------10-10p9-9p7--7/12-12/10-10/9-9/7------------10-10p9-9p7---------|
G|-----------------------------------------------------------------------|
D|-----------------------------------------------------------------------|

d|--------------15h17-17-17-17p15-15-15-15p13-13-13-13-12--|
A|---------------------------------------------------------|
F|--7------------------------------------------------------|
C|---10-10p9-9p7-------------------------------------------|
G|---------------------------------------------------------|
D|---------------------------------------------------------|

d|--15h17-17-17-17p15-15-15--17p15h17p15h17p15h17p15h17p15--12...--|
A|-----------------------------------------------------------------|
F|-----------------------------------------------------------------|
C|-----------------------------------------------------------------|
G|-----------------------------------------------------------------|
D|-----------------------------------------------------------------|

Outro (2:30)


Jake & Rob:

d|------------------------------|
A|------------------------------|
F|------------------------------|
C|------------2222-----------2--|
G|--333-555---0000-0h2p0-----0--|
D|--111-333--------------3p0----|
    ..  ..
Suggest correction
Give kudos to tab author, rate the tab!
1 2 3 4 5
comments
print report bad tab
guest
You may want to rate the tab now too:
select rating
Wanna post a correction for this tab? Suggest correction