Oops, an error
Loading. Please wait.

Away Tab

338 views 3 this week
no commentswrite comment
1 2 3 4 5
please rate
add to favorites
launch autoscroll
font size
0
reset
how to read this tab
guitar tuner
Autoscroll
slow
fast
+/-
esc
set tempo
stop
Help us to improve Ultimate-Guitar.com Take our survey!
×
Author
the letters above certain parts of the tab indicate a different guitar
riff to be played.

:------------------------A--------------------------------:
:---------------------------------------------------------:                                             
:---------------------------------------------------------:
:-3-3-3---------5-5-5--8-8-8-8-8--3-3-3-------------------:
:-1-1-1--5-5-5--3-3-3--6-6-6-6-6--1-1-1--5-5-5--3-3-3-3-3-:
:--------3-3-3---------------------------3-3-3--1-1-1-1-1-:

:------------------------B----------------------------------:
:-----------------------------------------------------------:
:-----------------------------------------------------------:
:-3-3-3---------5-5-5--8-8-8-8-8--3-3-3---------10-10-10--8-:     
:-1-1-1--5-5-5--3-3-3--6-6-6-6-6--1-1-1--5-5-5--8--8--8---6-:
:--------3-3-3---------------------------3-3-3--------------:

:---------------------C------------------------:
:----------------------------------------------:
:----------------------------------------------:
:-3-3-3------------------3-3-3--8-8-8----------:
:-1-1-1--5-5-5--3-3-3-3--1-1-1--6-6-6--3-3-3-3-:
:--------3-3-3--1-1-1-1----------------1-1-1-1-:

:-------------------D------------------------:
:--------------------------------------------:
:--------------------------------------------: 
:-8-8-8-8-8---10-10-10-10-10---3-3-3---------:
:-6-6-6-6-6---8--8--8--8--8----1-1-1---3-3-3-:
:--------------------------------------1-1-1-:

:-------------------:
:-4-2---2-4-2-------:
:-----4-------4-2---:
:-----------------4-:

:--------------------E----------------------:
:-------------------------------------------:
:-------------------------------------------:
:-3---------------------3---8-8-8-----------:
:-1---5-5-5---3-3-3-3---1---6-6-6---3-3-3-3-:
:-----3-3-3---1-1-1-1---------------1-1-1-1-:

:-------------F---------:--------G----------:-----------H-------------:
:-----------------------:-------------------:-------------------------:
:-----------------------:-------------------:-------------------------:
:-8-8-8-8---10-10-10-10-:-3-3-3-----------2-:-3-3-3---10-10-10--------:
:-6-6-6-6---8--8--8--8--:-1-1-1---5-5-5---2-:-1-1-1---8--8--8---3-3-3-:
:-----------------------:---------3-3-3---0-:-------------------1-1-1-:

:-------------------------------I------------------------------------------:
:--------------------------------------------------------------------------:
:--------------------------------------------------------------------------:
:-8-8-8---10-10-10---8-8-8---10-10-10---8-8-8---10-10-10---3-3-----------3-:
:-6-6-6---8--8--8----6-6-6---8--8--8----6-6-6---8--8--8----1-1---5-5-5---1-:
:----------------------------------------------------------------3-3-3-----:
Suggest correction
What's this?
You can suggest a correction to this tab. Community and Mods will review your correction and vote to approve or reject it.
comments
We did not receive enough feedback on this tab! Please rate:
print report bad tab
1 2 3 4 5
guest
You may want to rate the tab now too:
select rating
Please do not post tabs as comments. Select "correction" instead!