Oops, an error
Loading. Please wait.

Blew Tab

607 views 3 this week
no commentswrite comment
1 2 3 4 5
please rate
add to favorites
launch autoscroll
font size
0
reset
how to read this tab
guitar tuner
Autoscroll
slow
fast
+/-
esc
set tempo
stop
Help us to improve Ultimate-Guitar.com Take our survey!
×
Author
sup0 1,464
.=palm mute   h=hammer on    p=pull off      >=strum     ...=let ring

(#x)= how many times you play that section      ()=what you do next before whats
                                                   tabbed next

/or\=slide up or down     B=bend     t=tremelo


INTRO
    |a.)     |b.)
   e|--------|------------------------------------------------------------------|
   B|-.------|----------------------------------------------(2x)----------------|
1. G|-2---.--|--222-2-2-0-------------222-2-2-0---------------------------------|
   D|-2-5-3--|------------333-3-3-2-3------------333-3-2-3----------------------|
   A|-0-5-3--|------------------------------------------------------------------|
   E|---3-1--|------------------------------------------------------------------|

    |a.)     |b.)
   e|--------|---------------------|--------------------------------------------|
   B|-.------|---------------(2x)--|--------------------------------------------|
2. G|-2---.--|--222-2-2-0----------|-222-2-2-2-4-555-5-5-55--222-2-2-7---9-9-9-7|
   D|-2-5-3--|-----------333-3-2-3-|--------------------------------------------|
   A|-0-5-3--|---------------------|--------------------------------------------|
   E|---3-1--|---------------------|--------------------------------------------|

(INTRO part a.)

PRECHORUS
1.,2.
e|---------------------------------------------------------------------------|
B|----------------------------(2x only on 2nd time dont palm mute)-----------|
G|-2----5-------.-.--5...----------------------------------------------------|
D|-2----5----3--3-5--5...----------------------------------------------------|
A|-0----3----3--3-5--3...----------------------------------------------------|
E|-----------1--1-3----------------------------------------------------------|

2ND INTRO
1.,2.                                   let .10. ring through whole 2nd verse
e|--------------------|------------------------------------------------------|
B|----------------(2x)|------------------------------------------------------|
G|-222-2-2-0----------|-222-2-2-4-555-55-5--222-2-2-7--9-9-9-7-7/9--10...----|
D|-----------333-3-2-3|------------------------------------------------------|
A|--------------------|------------------------------------------------------|
E|--------------------|------------------------------------------------------|

(INTRO part a. [[guitar 2. only]])

chorus                             ((4x)) || Breakdown
e|-0-00--1-1-|--0-------------------------||----------------------------------|
B|-1-11--1-1-|--1-------------------------||666-555---------------------------|
G|-0-00--0-0-|--0--------------.-.--------||--------555--000--5-5-0...--2...--|
D|-----------|-----------------3-5--------||----------------------------------|
A|---(3x)----|-----------------3-5--------||----------------------------------|
E|-----------|-----------------1-3--------||----------------------------------|

1.,2. Breakdown cont.
e|----------------------------------------------------------555-333-55-33-55-33|
B|---------------------------------------555-333-55-33-55-33-------------------|
G|222-000-22-00-22-00-555-444-55-44-55-44--------------------------------------|
D|-----------------------------------------------------------------------------|
A|-----------------------------------------------------------------------------|
E|-----------------------------------------------------------------------------|


interlude|1.,2.
e|----------(3x)----------|--------------------|----------|-------------------|
B|---------------------656|--------------------|-5ect.-...|-5ect.-...---------|
G|-44-44-44-4-66-44-44-555|-5-6-5-6-5-6-5-6-5-6|-5--------|-6-----------------|
D|-77-55-55-7-77-55-55-555|-5-5-5-5-5-5-5-5-5-5|-5--------|-5-----------------|
A|------------------------|--------------------|----------|-------------------|
E|------------------------|--------------------|----------|-------------------|

e|8-8-8-8--10-10-10-10---8-8-8-8--10-10-10-10---8-8--10-10---8-8--10-10---8-10>|
B|-----------------------------------------------------------------------------|
G|-----------------------------------------------------------------------------|
D|-----------------------------------------------------------------------------|
A|-----------------------------------------------------------------------------|
E|-----------------------------------------------------------------------------|

(chorus)

ending
e|---------------------------------------------------------------------------|
B|---------------5---5-------------------------------------------------------|
G|-.--.--5...----5---6-------------------------------------------------------|
D|-3--5--5...----5---5-------------------------------------------------------|
A|-3--5--3...----------------------------------------------------------------|
E|-1--3----------------------------------------------------------------------|
Suggest correction new What's this?
You can suggest a correction to this tab. Community and Mods will review your correction and vote to approve or reject it.
comments
We did not receive enough feedback on this tab! Please rate:
print report bad tab
1 2 3 4 5
guest
You may want to rate the tab now too:
select rating
Please do not post tabs as comments. Select "correction" instead!