Oops, an error
Loading. Please wait.

Contender Tab

279 views 1 this week
no commentswrite comment
1 2 3 4 5
please rate
add to favorites
launch autoscroll
font size
0
reset
how to read this tab
guitar tuner
Autoscroll
slow
fast
+/-
esc
set tempo
stop
Help us to improve Ultimate-Guitar.com Take our survey!
×
Author
Difficulty
Tuning
intermediate
D G C F A D
Strung Out - Contender - Solo
By: Kevin Mawn (October 2009)
Video: McMawnster on Youtube.com
Tuning: DGCFAd

1m13s (Rob Ramos)

d--|-------------------------|-------------------------|-15p12-------------------|
A--|-12----------------------|-12----------------------|-------15p12-15p12-13p12-|
F--|b14----------------------|b14----------------------|-------------------------|
C--|-------------------------|-------------------------|-------------------------|
G--|-------------------------|-------------------------|-------------------------|
D--|-------------------------|-------------------------|-------------------------|
4/4: 1  &  2  &  3  &  4  &  | 1  &  2  &  3  &  4  &  | 1  &  2  &  3  &  4  &  |
Fgr: 1                       | 1                       | 4  1  4  1  4  1  2  1  |
     3                       | 3                       |                         |
%%%%%%%%%%%%%%%%%%%%%%%%%%%%%%%%%%%%%%%%%%%%%%%%%%%%%%%%%%%%%%%%%%%%%%%%%%%%%%%%%%

d--|-------------------------|----------------12h15p12-|-------------------------|
A--|-------------------------|----------12h15----------|-15p12-12h13-------------|
F--|-14p12-14p12-------------|----12h14----------------|-------------14p12h14----|
C--|-------------14p12-12h13p.p14----------------------|-------------------------|
G--|-------------------------|-------------------------|-------------------------|
D--|-------------------------|-------------------------|-------------------------|
4/4: 1  &  2  &  3  &  4  &  | 1  &  2  &  3  &  4  &  | 1  &  2  &  3  &  4  &  |
Fgr: 3  1  3  1  3  1  1  2  | 3  1  3  1  4  1  4  1  | 4  1  1  2  3  1  3     |
%%%%%%%%%%%%%%%%%%%%%%%%%%%%%%%%%%%%%%%%%%%%%%%%%%%%%%%%%%%%%%%%%%%%%%%%%%%%%%%%%%
     ~                         v                                  ~
d--|-------------------------|-------------------------|-------------------------|
A--|-------------------------|-------------------------|-------------------------|
F--|-12---------------/12----|-11----------------------|----------12-------------|
C--|-------------------------|-------------------12----|/14----------------14----|
G--|-------------------------|-------------------------|-------------------------|
D--|-------------------------|-------------------------|-------------------------|
4/4: 1  &  2  &  3  &  4  &  | 1  &  2  &  3  &  4  &  | 1  &  2  &  3  &  4  &  |
Fgr: 1                 1     | 1                 2     | 2        1        2     |
%%%%%%%%%%%%%%%%%%%%%%%%%%%%%%%%%%%%%%%%%%%%%%%%%%%%%%%%%%%%%%%%%%%%%%%%%%%%%%%%%%
                                        ~                ~
d--|-------------------------|-------------------------|-------------------------|
A--|-15...b16...r15----------|-------------------------|-------------------12----|
F--|-------------------------|----------12-------------|-12----------------------|
C--|----------------------12-|/14----------------14----|----------14-------------|
G--|-------------------------|-------------------------|-------------------------|
D--|-------------------------|-------------------------|-------------------------|
4/4: 1  &  2  &  3  &  4  &  | 1  &  2  &  3  &  4  &  | 1  &  2  &  3  &  4  &  |
Fgr: 3                    3  | 3        1        3     | 1        3        1     |
%%%%%%%%%%%%%%%%%%%%%%%%%%%%%%%%%%%%%%%%%%%%%%%%%%%%%%%%%%%%%%%%%%%%%%%%%%%%%%%%%%

                                                                                  
d--|-------------------15p12-|-------------------------|/19-------17-------15----|
A--|-------15p12-13p12-------|-15p12-15p12-15p12-15p12-|-------------------------|
F--|b14----------------------|-------------------------|-------------------------|
C--|-------------------------|-------------------------|-------------------------|
G--|-------------------------|-------------------------|-------------------------|
D--|-------------------------|-------------------------|-------------------------|
4/4: 1  &  2  &  3  &  4  &  | 1  &  2  &  3  &  4  &  | 1  &  2  &  3  &  4  &  |
Fgr: 3     4  1  2  1  4  1  | 4  1  4  1  4  1  4  1  | 4        2        2     |
%%%%%%%%%%%%%%%%%%%%%%%%%%%%%%%%%%%%%%%%%%%%%%%%%%%%%%%%%%%%%%%%%%%%%%%%%%%%%%%%%%
              ^        ^       ^~
d--|-14-------15-------14----|-------------------------|
A--|-------------------------|-17----------------------|
F--|-------------------------|-------------------------|
C--|-------------------------|-------------------------|
G--|-------------------------|-------------------------|
D--|-------------------------|-------------------------|
4/4: 1  &  2  &  3  &  4  &  | 1  &  2  &  3  &  4  &  |
Fgr: 1        2        1     | 3                       |
%%%%%%%%%%%%%%%%%%%%%%%%%%%%%%%%%%%%%%%%%%%%%%%%%%%%%%%%   

LEGEND:

h  : Hammer-On
p  : Pull-Off
t  : Tapped Note
b  : Bend
r  : Release
m  : Micro Bend (1/4 note)
x  : Palm Mute
v  : Wide Vibrato (Moves a semi-tone)
~  : Narrow Vibrato

&  : Mute Sound (Rest fingers on strings)
#  : Muffled Strings (Pick muffled strings)
@  : Pick Slide
=  : Hold Note
/  : Slide Up
\  : Slide Down
() : Ghost Note
/7): Legato Slide (Don't pick the last note).

$u : Sweep Picking Upstroke
$d : Sweep Picking Downstroke

*  : Natural Harmonic
^  : Pinch Harmonic
!  : Harp Harmonic

|  : Bar
#  : Section
%  : Notes
.  : Hold Pull-Off/Hammer-On/Bend (for timing purposes)
Fgr: Finger to use
Suggest correction
Give kudos to tab author, rate the tab!
1 2 3 4 5
comments
print report bad tab
guest
You may want to rate the tab now too:
select rating
Wanna post a correction for this tab? Suggest correction