Oops, an error
Loading. Please wait.

Cult Of The Subterranean Tab

version 1
version 1

Whole song

Interactive

2,147 views 1 this week
no commentswrite comment
1 2 3 4 5
2 more votes to show rating
add to favorites
launch autoscroll
font size
0
reset
how to read this tab
guitar tuner
Autoscroll
slow
fast
+/-
esc
set tempo
stop
Help us to improve Ultimate-Guitar.com Take our survey!
×
-------------------------------------------------------------------------------
                             CULT OF THE SUBTERRANEAN - Strung Out
-------------------------------------------------------------------------------

By:John McCorkindale (johnm@umail.ucsb.edu)

SOT Says, Three Cheers for John McCorkindale

Note: Drop to full D tuning

m= Mute
b#= bend note up to #th fret
9b11b9= bend one full step up, release.
h= Hammer on
...=Sustain


Intro

Guitar one plays below riff once, then guitar 2 comes in.

Guitar 1

d|---------------------------------------------------------------------------|
A|---------------------------------------------------------------------------|
F|-------4-------------------------------------------------------------------|
C|-------4-4-4-----------5-------------------------------0-0------6x---------|
G|-2-2-2-------2-2-------5-5-5-----------7-7-7-5-5-2-2-2-----0-2-------------|
D|-----------------3-3-3-------3-3-5-5-5-------------------------------------|

Guitar 2

d|---------------------------------------------------------------------------|
A|-3-3-3-2-2-2---------------------3-3-3-2-2-2-------3-3-3-3-2-4-------------|
F|-------------4-4-4p2-2-2-2-2-2-2-------------4-4-4--------------5x---------|
C|---------------------------------------------------------------------------|
G|---------------------------------------------------------------------------|
D|---------------------------------------------------------------------------|


d|---------------------------------------------------------------------------|
A|-------7-7-7---------------------------------------------------------------|
F|-4-4-4-------------7-7-7---------------------------------------------------|
C|-------------5-5-5-----------7-7-------------------------0h2-----2x--------|
G|-------------------------5-5-----------7-7-7-5-5-2-2-2-2-----2-------------|
D|---------------------------------5-5-5-------------------------------------|

pick scrape

d|---------------------------------------------------------------------------|
A|---7-----------------------------------------------------------------------|
F|-4-6---7---9-----999-77-4-----4--------------------------------------------|
C|-4-4-5-7-7-9-777-999-77-4-0---4--------------------------------------------|
G|-2---5-5-7-7-777-777-55-2---0-2--------------------------------------------|
D|-----3---5---555-----------------------------------------------------------|


Verse begins
d|---------------------------------------------------------------------------|
A|---------------------------------------------------------------------------|
F|-------4-------------------------------------------------------------------|
C|-------4-4-4-----------5-------------------------------0--------4x---------|
G|-2-2-2-------2-2-------5-5-5-----------7-7-7-5-5-2-2-2---0-2---------------|
D|-----------------3-3-3-------3-3-5-5-5-------------------------------------|

  strum. The number of chords are not writen to scale (where the arrows point
  to)
   >             <         >             <  >             <
d|---------------------------------------------------------------------------|
A|---------------------------------------------------------------------------|
F|-----------------9997-------------------------------------9997-44--4-4-----|
C|-777777777777777-9997-99-999999999999999--777777777777777-9997-44--4-4-----|
G|-777777777777777-7775-99-999999999999999--777777777777577-7775-22--2-2-----|
D|-555555555555555------77-777777777777777--555555555555555------------------|

d|---------------------------------------------------------------------------|
A|---------------------------------------------------------------------------|
F|-------4-------------------------------------------------------------------|
C|-------4-4-4-----------5-------------------------------0--------2x---------|
G|-2-2-2-------2-2-------5-5-5-----------7-7-7-5-5-2-2-2---0-2---------------|
D|-----------------3-3-3-------3-3-5-5-5-------------------------------------|

d|---------------------------------------------------------------------------|
A|---7-----------------------------------------------------------------------|
F|-4-6---7---9-----999-77-4-----4--------------------------------------------|
C|-4-4-5-7-7-9-777-999-77-4-0---4-----2x-------------------------------------|
G|-2---5-5-7-7-777-777-55-2---0-2--------------------------------------------|
D|-----3---5---555-----------------------------------------------------------|

  strum. The number of chords are not writen to scale (where the arrows point
  to)
   >             <         >                              <
d|---------------------------------------------------------------------------|
A|---------------------------------------------------------------------------|
F|-----------------9997-------------------------------------9997-44--4-4-----|
C|-777777777777777-9997-99-999999999999999--777777777777777-9997-44--4-4-----|
G|-777777777777777-7775-99-999999999999999--777777777777577-7775-22--2-2-----|
D|-555555555555555------77-777777777777777--555555555555555------------------|
       >     <     >                                 <
d|---------------------------------------------------------------------------|
A|---------------------------------------------------------------------------|
F|-------------999------------999999-777777-1111111111-----------------------|
C|-999-7777777-999-999999999--999999-777777-1111111111-----------------------|
G|-999-7777777-777-999999999--777777-555555-9-9-9-9-9------------------------|
D|-777-5555555-----777777777-------------------------------------------------|

Guitar 1

d|---------------------------------------------------------------------------|
A|---------------------------------------------------------------------------|
F|---------------------------------------------------------------------------|
C|-------4-4-4-------------------------------------------0-------4x----------|
G|-2-2-2-------------5-5-5-----7-7-------7-7-7-5-5-2-2-2---0-2---------------|
D|-------------3-3-3-------5-5-----5-5-5-------------------------------------|

Guitar 2

d|--------------------------|----------------------|-------------|-----------|
A|--------------------------|----------------------|-------------|-----------|
F|-------12-12-12-11-11-----|------12-12-11-11-----|----12-11----|--12-11----|
C|-9-9-9-----------------8x-|--9-9--------------5x-|--9-------6x-|--------3x-|
G|--------------------------|----------------------|-------------|-----------|
D|--------------------------|----------------------|-------------|-----------|

d|---------------------------------------------------------------------------|
A|---7-----------------------------------------------------------------------|
F|-4-6---7---9-----999-77-4-----4--------------------------------------------|
C|-4-4-5-7-7-9-777-999-77-4-0---4---2x---------------------------------------|
G|-2---5-5-7-7-777-777-55-2---0-2--------------------------------------------|
D|-----3---5---555-----------------------------------------------------------|


Solo:

Rhythm Gutiar:

d|---------------------------------------------------------------------------|
A|---7-----------------------------------------------------------------------|
F|-4-6---7---9-----999-77-4-----4--------------------------------------------|
C|-4-4-5-7-7-9-777-999-77-4-0---4---2x---------------------------------------|
G|-2---5-5-7-7-777-777-55-2---0-2--------------------------------------------|
D|-----3---5---555-----------------------------------------------------------|

Lead (with wah):

the second bend should be faster|
                                V
d|---------------------------------------------------------------------------|
A|---------------------------------------------------------------------------|
F|--11-9---------9b11b9----9b11b9--------------------------------------------|
C|-------12-9-12--------12---------------------------------------------------|
G|---------------------------------------------------------------------------|
D|---------------------------------------------------------------------------|

 Tremalo pick (rappidly up and down) all notes not tabed to save space
d|---------------------------------------------------------------------------|
A|---15-15-15-15-15-15-15-14-14-14-14-14-14-14-17-17-17-17-17-17-15-15-15-15-|
F|---------------------------------------------------------------------------|
C|---------------------------------------------------------------------------|
G|---------------------------------------------------------------------------|
D|---------------------------------------------------------------------------|
                                  (quick)
d|--14-17-14-12-17-14-12-17b19...-17b19b17-14--------------------------------|
A|--------------------------------------------17-15--------------------------|
F|--------------------------------------------------14...--------------------|
C|---------------------------------------------------------------------------|
G|---------------------------------------------------------------------------|
D|---------------------------------------------------------------------------|

  strum. The number of chords are not writen to scale (where the arrows point
  to)
   >             <         >                                               <
d|---------------------------------------------------------------------------|
A|---------------------------------------------------------------------------|
F|-----------------9997-------------------------------------9997-------------|
C|-777777777777777-9997-99-999999999999999--777777777777777-9997-99--9-9-----|
G|-777777777777777-7775-99-999999999999999--777777777777577-7775-99--9-9-----|
D|-555555555555555------77-777777777777777--555555555555555------77--7-7-----|
       >     <     >                                 <
d|---------------------------------------------------------------------------|
A|---------------------------------------------------------------------------|
F|-------------999------------999999-777777-1111111111-----------------------|
C|-999-7777777-999-999999999--999999-777777-1111111111-12--------------------|
G|-999-7777777-777-999999999--777777-555555-9-9-9-9-9--12--------------------|
D|-777-5555555-----777777777---------------------------10--------------------|

Guitar 1

   |                                    1x                                |
   |                                    1x                            |
         mmmmmmmmmmm       mmmmmmmmmmm
d|---------------------------------------------------------------------------|
A|---------------------------------------------------------------------------|
F|--------------------99---------------11--1212121212------------111111-9-7--|
C|-99--7-77777777777--99-9-99999999999-11--1212121212-1212121212-111111-9-7--|
G|-99--7-77777777777--77-9-99999999999-9---1010101010-1212121212-9-9-9--7-5--|
D|-77--5-55555555555-----7-77777777777----------------1010101010-------------|
                                            |
Guitar 2                                    |
d|------------------------------------------|--------------------------------|
A|------------------------------------------|--------------------------------|
F|------------------------------------------|--------------------------------|
C|-7>9>11>12>11>9>7>9-9>11>12>10>12>11>9>11-V--Play-rest-of-measure-in-unison|
G|---------------------------------------------with-guitar-1-----------------|
D|-5>7>9->10>9->7>5>7-7>9->10>12>10>9->7>9-----------------------------------|

d|---------------------------------------------------------------------------|
A|-------7-7-7---------------------------------------------------------------|
F|-4-4-4-------------7-7-7---------------------------------------------------|
C|-------------5-5-5-----------7-7-----------------9-9-9-9-9-----------------|
G|-------------------------5-5-----------7-7-7-5-5-9-9-9-9-9-----------------|
D|---------------------------------5-5-5-----------7-7-7-7-7-----------------|

===============================================================================
Suggest correction
Give kudos to tab author, rate the tab!
1 2 3 4 5
comments
print report bad tab
guest
You may want to rate the tab now too:
select rating
Wanna post a correction for this tab? Suggest correction