Oops, an error
Loading. Please wait.

Dead Spaces Bass Tab

version 1
version 1

Whole song

Interactive

281 views 1 this week
no commentswrite comment
1 2 3 4 5
please rate
add to favorites
launch autoscroll
font size
0
reset
guitar tuner
Autoscroll
slow
fast
+/-
esc
set tempo
stop
Help us to improve Ultimate-Guitar.com Take our survey!
×
Author
Difficulty
Tuning
JFer47 43
intermediate
C F A# D# G C
DGCF Tuning

Intro                               Hold
F-------------------11h13~---------     ---------|
C---------------9/11---------------     ---------|
G-999-5-5----7/9-----------999-5-5-     -999-5-5-|
D--------2~------------------------2    ---------|

Main Riff
F----------------------------------------------------------------|
C----------------------------------------------------------------|
G-----------------------999-5-5-----------------------999-5-5----|
D-2xx3p2xx2xx2xx2xx3p2xx--------2xx3p2xx2xx2xx2xx3p2xx--------2~-|

Verse
F----------------------------------------|
C------6666-7777-9999--------------------|
G-9999----------------99999999-----------|
D-------------------------------0-2-20-2-|

F----------------------------------------|
C----------------------------------------|
G-9999-7777-5555-4444-555555555-77777777-|
D----------------------------------------|

F----------------------------------------|
C------6666-7777-9999--------------------|
G-9999----------------99999999-----------|
D-------------------------------0-2-20-2-|

F-------------------------------------------|
C-------------------------------------------|
G-9999-7777-5555-4444-555555555-44444444----|
D-------------------------------------------|

PreChorus
F----------------------------------------|
C----------------------------------------|
G-----------------555-4-4-4-777-99999999-|
D-2-2-2-555-7-7-7------------------------|

F-----------------------------------------|
C------------------------------------975--|
G-----------------555-4-4-4-777-9999----7-|
D-2-2-2-555-7-7-7-------------------------|

Chorus
F---------------------------------------|
C------------------4444-6666-77-66-44---|
G-55555555-44444444------------------77-|
D---------------------------------------|

F------------------------------11-11-11-11-13-13-13-13-15-15-13-13-11-11----|
C---7-7-------11-11-11-11-9---------------------------------------------14\-|
G-55-5-555-4/9-------------10-9---------------------------------------------|
D---------------------------------------------------------------------------|

F--------------------------------------------------------------------|
C------------------4444-6666-77-66-44--------------------------------|
G-55555555-44444444------------------77-55555555-44444444-999-5-5----|
D-----------------------------------------------------------------2~-|

Main Riff, Verse, Half the PreChorus

Chorus 2=Same as Chorus 1, End on:

F----
C----
G----
D-2~-

Fill
F--------------------------------------------|
C-14h16~------14h16--14--11-9-12-11-9--------|
G-------------------------------------12-11--|
D--------------------------------------------|

Bridge
F----------------------------------------------------------------------|
C----------------------------------------------------------------------|
G-------55-------------55-44-44-------55-------------55555555-44444444-|
D-22-55----55-77-22-55----------22-55----55-77-22-55-------------------|

Bridge Pt 2
F--------------------------------------------------------------------------|
C--------------------------------------------------------------------------|
G-------------------55555555-----------------------------55555555-4444444--|
D-22222222-55555555----------5555-7777-22222222-55555555-----------------5-|

F--------------------------------------------------------------------------|
C--------------------------------------------------------------------------|
G-------------------55555555-----------------------------55555555-77777777-|
D-22222222-55555555----------5555-7777-22222222-55555555-------------------|

Outro Riff                                                               x3
F-------------------------------------------------------------------------|
C-------------------------------------------------------------------------|
G-99999999-55555555-------------------99999999-55555555-77777777-44444444-|
D-------------------55555555-44444444-------------------------------------|

To Close
F-----------------------------|
C---------------------999-5-5-|
G-2xx2xx2xx2xx2xx3p2xx--------|
D-----------------------------|
Suggest correction
What's this?
You can suggest a correction to this tab. Community and Mods will review your correction and vote to approve or reject it.
comments
We did not receive enough feedback on this tab! Please rate:
print report bad tab
1 2 3 4 5
guest
You may want to rate the tab now too:
select rating
Please do not post tabs as comments. Select "correction" instead!