Oops, an error
Loading. Please wait.

Dig Tab

1,438 views 6 this week
no commentswrite comment
1 2 3 4 5
accurate
x 3
add to favorites
launch autoscroll
font size
0
reset
how to read this tab
guitar tuner
Autoscroll
slow
fast
+/-
esc
set tempo
stop
Help us to improve Ultimate-Guitar.com Take our survey!
×
Author
Song is in D tuning           >=accented
Intro-played clean x1
e|--------------------------------------------------------------------------|
B|--------------------------------------------------------------------------|
G|11-11-11-12-11-9--7-7-7-8-7-5--11-11-11-12-11-9---9-9-12-12-12-11-9-------|
D|x--x--x--x--x--x--x-x-x-x-x-x--x--x--x--x--x--x---x-x-x--x—-x--x--x-------|
A|9--9--9--10-9--7--5-5-5-6-5-3--9--9--9--10-9--7---7-7-10-10-10-9--7-------|
E|--------------------------------------------------------------------------|

e|--------------------------------------------------------------------------|
B|--------------------------------------------------------------------------|
G|11-11-11-12-11-9--11-11-11-12-11-9---9-9-12-12-12-11-9-7-6-7-9-11---------|
D|x--x--x--x--x--x--x--x--x--x--x--x---x-x-x--x--x--x--x-x-x-x-x-x----------|
A|9--9--9--10-9--7--9--9--9--10-9--7---7-7-10-10-10-9--7-5-4-5-7-9----------|
E|--------------------------------------------------------------------------|

Verse-distortion played once before singing begins and once for verse
e|--------------------------------------------------------------------------|
B|--------------------------------------------------------------------------|
G|11>-11>-11-12-11-9—-7>-7>-7-8-7-5—-11>-11>-11-12-11-9---9>-9-12-12-12-11-9|
D|x---x---x--x--x--x--x--x--x-x-x-x--x----x--x--x--x--x---x--x-x--x—-x--x--x|
A|9>--9>--9--10-9--7—-5>-5>-5-6-5-3—-9>--9>--9--10-9--7---7>-7-10-10-10-9--7|
E|--------------------------------------------------------------------------|

e|--------------------------------------------------------------------------|
B|--------------------------------------------------------------------------|
G|11>-11>-11-12-11-9—-11>-11>-11-12-11-9---9>-9>-12-12-12-11-9-7-6-7-9-11---|
D|x---x---x--x--x--x--x---x---x--x--x--x---x--x--x--x--x--x--x-x-x-x-x-x----|
A|9>--9>--9--10-9--7—-9>--9>--9--10-9--7---7>-7>-10-10-10-9--7-5-4-5-7-9----|
E|--------------------------------------------------------------------------|

Chorus
e|--------------------------------------------------------------------------|
B|--------------------------------------------------------------------------|
G|--------------------------------------------------------------------------|
D|-----------44444444---77-------------------------44444444---77------------|
A|55555555---22222222---55--99--77--44---55555555--22222222---55--99--77--44|
E|33333333------------------77--55--22---33333333-----------------77--55--22|

Played after the last note of the chorus  
e|--------------------------------------------------------------------------|
B|--------------------------------------------------------------------------|
G|--------------------------------------------------------------------------|
D|--4-7---------------------------------------------------------------------|
A|5-2-5---------------------------------------------------------------------|
E|3-------------------------------------------------------------------------|

Play the verse 2x
Chorus 2x plus the after chorus

Bridge played 2x  the last chord has palm muting, figure out the rhythm yourself,
that’s the one thing I will make you work for on this new tab
e|--------------------------------------------------------------------------|
B|--------------------------------------------------------------------------|
G|--------------------------------------------------------------------------|
D|4..---------7-------------------------------------------------------------|
A|2..—-5..----5-------------------------------------------------------------|
E|-----3..------------------------------------------------------------------|

Then play verse one time to end it and voila.  
Suggest correction
What's this?
You can suggest a correction to this tab. Community and Mods will review your correction and vote to approve or reject it.
comments
We did not receive enough feedback on this tab! Please rate:
print report bad tab
1 2 3 4 5
guest
You may want to rate the tab now too:
select rating
Please do not post tabs as comments. Select "correction" instead!