Oops, an error
Loading. Please wait.

Diver Tab

1,149 views 1 this week
no commentswrite comment
1 2 3 4 5
please rate
add to favorites
launch autoscroll
font size
0
reset
how to read this tab
guitar tuner
Tab Pro tools
  • play this tab
  • loop segment
  • change instrument
  • show fretboard
  • metronome
×
Best way to learn
"Diver"
Autoscroll
slow
fast
+/-
esc
set tempo
stop
Diver
by Strung Out
tabbed by Trent Clark

Tuning Drop D-DADGBe

At roughly 19 sec into the song

Intro
e-----------------------------------------------------------------------|
B-----------------------------------------------------------------------|
G-6-6--7-7--9-9--1111-6-6--7-7--1111-9-9--6-6-6-6-6-6-7-7-6-6-6-6-6-7-7-|
D-x-x--x-x--x-x--x-x--x-x--x-x--x-x--x-x--x-x-x-x-x-x-x-x-x-x-x-x-x-x-x-|
A-4-4--5-5--7-7--9-9--4-4--5-5--9-9--7-7--4-4-4-4-4-4-5-5-4-4-4-4-4-5-5-|
D-(obviously these are just the chords but you can figure it all out with them)

Verse
e--(Palm mute except on *)----------------------------------------|
B-----------------------------------------------------------------|
G-*-----*-----*---*-----*-----*---*-----*-------*-------*---------|
D-0-0-0-0-0-0-0-0-2-2-2-2-2-2-2-2-5-5-5-5-5-5-5-5-5-5-5-5-5-5-5-5-|
A-0-0-0-0-0-0-0-0-2-2-2-2-2-2-2-2-5-5-5-5-5-5-5-5-5-5-5-5-5-5-5-5-|
D-0-0-0-0-0-0-0-0-2-2-2-2-2-2-2-2-5-5-5-5-5-5-5-5-5-5-5-5-5-5-5-5-|

Pre-chorus
e-(First time play only once)-
B-----------------------------|
G-14-----------11------9------|(strum continously)
D-x------------x-------x------|
A-12-----------9-------7------|
D-----------------------------|

Chorus
e-----------------------------------------------------------------------------------|
B------(Continous fast strumming throughout until the end bit)----------------------|
G-6-6--7-7--9-9--1111-6-6--7-7--1111-9-9--6-6--7-7--9-9--1111-6-6-7-7---9-----7-----|
D-x-x--x-x--x-x--x-x--x-x--x-x--x-x--x-x--x-x--x-x--x-x--x-x--x-x-x-x---x-----x-----|
A-4-4--5-5--7-7--9-9--4-4--5-5--9-9--7-7--4-4--5-5--7-7--9-9--4-4-5-5---7_____5____-|
D----------------------------------------------------------------------("For   us")-|

Bridge
e-----------------------------------------------------------------|
B-----------------------------------------------------------------|
G-----6-7-6--------6----7-----6----------6-7-6--------6---8---6---|
D-7-7-------7----7--7-7---7-7---7----7-7-------7----7---7---7---7-|
A-(isn't exact but listen to the song and you'll get what i mean)-
D-----------------------------------------------------------------

e-(accents on *)---(repeat twice)------------------------------|---------|
B-*-----*-----*-----*-----*---*---*-----*-----*-----*________--|---------|
G-6-6-6-7-7-7-9-9-9-1111119-9-7-7-6-6-6-7-7-7-9-9-9-1111111111-|-7-------|
D-x-x-x-x-x-x-x-x-x-x-x-x-x-x-x-x-x-x-x-x-x-x-x-x-x-x-x-x-x-x--|-x-------|
A-4-4-4-5-5-5-7-7-7-9-9-9-7-7-5-5-4-4-4-5-5-5-7-7-7-9-9-9-9-9--|-5______-|
D--------------------------------------------------------------|---------|

e----------------------
B(at the end of "back")
G----------------------|
D-0-----2-----5--------|
A-0-----2-----5--------|
D-0_____2_____5______--|

e--------------------|
B--------------------|
G-12-----11---9------|
D-x------x----x------|
A-10-----9----7------|
D--------------------|
(like pre-chorus strum continuously)

Outro
e-------------|
B-------------|
G-7-----------|
D-x-----------|
A-5__________-
D-------------

Intro
Verse
Pre-chorus(only once)
Intro (only the first few chords)
Verse
Pre-chorus(twice)
Chorus
Verse(palm muting changed)
Pre-chorus(twice)
Chorus
Bridge(repeated a few times)
Outro


So there's Diver! Enjoy!
Note:This was my first tab--I'm so glad it was Strung Out! Any problems (which there 
will be) e-mail me trent2323@bigpond.com
comments
We did not receive enough feedback on this tab! Please rate:
print report bad tab
1 2 3 4 5
I want to post or [tab]
guest
You may want to rate the tab now too:
select rating
Please do not post tabs as comments. Select "correction" instead!