Oops, an error
Loading. Please wait.

Everyday Tab

version 1
version 1

Whole song

Interactive

2,039 views 1 this week
no commentswrite comment
1 2 3 4 5
please rate
add to favorites
launch autoscroll
font size
0
reset
how to read this tab
guitar tuner
Autoscroll
slow
fast
+/-
esc
set tempo
stop
Help us to improve Ultimate-Guitar.com Take our survey!
×
Contributor
----------------------------------------------------------------------------
STRUNG OUT - EVERYDAY
----------------------------------------------------------------------------
GUYS, i didnt write this tab, i take alsolutely no credit for it, most of the tab
(except the solo) was taken from: 

http://www.geocities.com/strungouttabs/main.htm

this is the best strung out tab site you are likely to find, it hasnt got a lot of tabs,
but its got all the good songs and they are 100% correct

the solo i got from a source that i cant remember, but it pretty much correct, but you
guys can work it out. I only put this here cos there wasnt a good one here. but for
further strung out tabs go to the above address

J=Jake  R=Rob  J&R=both
:
# verse #J&RX2  #=play 15-17 times palm-muted  !!=clean tone
D------------------------------------------------------>
A------------------------------------------------------>
F------#-----------------------!---------------!------->
C---9-9--------------*-----------5-----5-----5--------->
G---7-7------9-9101010-----5-5-2---2-3---3-------5-5--->
D------------7-78-8-8------2-3-------------3---3-3-2--->
> verseJ&R
>------------------------------------------------------>
>------------------------------------------------------>
>------#-----------------------!---------------!------->
>---9-9--------------*-----------5-----5-----5--------->
>---7-7------9-9101010-----5-5-2---2-3---3-------5-5--->
>------------7-78-8-8------2-3-------------3---3-3-2--->
> verseJ&R  
>-------------------------------------------------------------------------------->
>-------------------------------------------------------------------------------->
>------#-----------------------!------------------------------------------------->
>---9-9--------------*-----------5-----5-----5-----5-----5-----5-----5-----5----->
>---7-7------9-9101010-----5-5-2---2-3---3-5---5-7---7-2---2-3---3-5---5-7---7--->
>------------7-78-8-8------2-3--------------------------------------------------->
>
>-------------------------------------------------------------------------------->
>-------------------------------------------------------------------------------->
>------#-----------------------!------------------------------------------------->
>---9-9--------------*-----------5-----5-----5-----5-----5-----5-----5-----4----->
>---7-7------9-9101010-----5-5-2---2-3---3-5---5-7---7-2---2-3---3-7---7-5---5--->
>------------7-78-8-8------2-3--------------------------------------------------->
>
>-------------------------------------------------------------------------------->
>-------------------------------------------------------------------------------->
>------#-----------------------!------------------------------------------------->
>---9-9--------------*-----------5-----5-----5-----5-----5-----5-----5-----4----->
>---7-7------9-9101010-----5-5-2---2-3---3-5---5-7---7-2---2-3---3-7---7-5---5--->
>------------7-78-8-8------2-3--------------------------------------------------->
> verseJ&R
>-----------------------------------------------------------------|
>-----------------------------------------------------------------|
>-------------------------------------------------------------!---|
>-----5-----5-----5-----5-----5-----5-----5-----5-----4-----4-----|
>---2---2-3---3-5---5-7---7-2---2-3---3-5---5-5---5-5---5-5---5---|
>-----------------------------------------------------------------|
:
# verse2 #JX2  #=play 6-7 times
D---------------------------------------------------------------------|
A---------------------------------------------------------------------|
F------#----------------#------------------#------#-------------------|
C---9-9--------109-7-9-9----------109-7-5-5------5--------------------|
G---7-7--------8-7-5-7-7----------8-7-5-3-3------3------5-5-5-5-5-5---|
D-------------------------------------------------------3-3-3-2-2-2---|
# verse2 #RX2  #=play 6-7 times
D---------------------------------------------------------------------|
A---------------------------------------------------------------------|
F------#----------------#---------109-7--#-------109-7----------------|
C---9-9--------109-7-9-9----------------5-----------------------------|
G---7-7--------8-7-5-7-7----------8-7-5-3--------8-7-5--5-5-5-5-5-5---|
D-------------------------------------------------------3-3-3-2-2-2---|
:
# pre-solo #J&R  !all notes clean tone!
D----------------------------------------------------->
A----------------------------------------------------->
F----------------------------------------------------->
C-----5-----5-----5-----5-----5-----5-----5-----4----->
G---2---2-3---3-5---5-7---7-2---2-3---3-7---7-5---5--->
D----------------------------------------------------->
> pre-soloJ&R
>-----------------------------------------------------------------|
>-----------------------------------------------------------------|
>-----------------------------------------------------------------|
>-----5-----5-----5-----5-----5-----5-----5-----5-----4-----4-----|
>---2---2-3---3-5---5-7---7-2---2-3---3-5---5-5---5-5---5-5---5---|
>-----------------------------------------------------------------|
:
Then Jake plays verseJ&R
# solo #R
D---------------------------------------------------------------------| 
A-8-7-5--.-.-..-8p7-.-.-..-7p5-----------------------5h7-5h7-8p7p5-5h7| 
F--------7h9-99-----5h7-77--------------------------------------------| 
C--------------------------------7-5-4-5-4-2-4-2-0--------------------| 
G---------------------------------------------------------------------| 
D---------------------------------------------------------------------| 

D---------------------------------10-8-7-8-7----7------7-7-7----------| 
A-12p10-12p10/8-12p10-12p10/8-7p5------------10---8-8--------10-8-----| 
F---------------------------------------------------------------------| 
C---------------------------------------------------------------------| 
G---------------------------------------------------------------------| 
D---------------------------------------------------------------------| 

D-10-8-7----7-8----15-14-12-14-15-14-12-10-8-7------------10-10-------| 
A--------10-------------------------------------12-10-8-8-------8-----| 
F---------------------------------------------------------------------| 
C---------------------------------------------------------------------| 
G---------------------------------------------------------------------| 
D---------------------------------------------------------------------| 

D---------7----------7----------7-------------------------------------| 
A-8-10p8-(12)8-10p8-----8-10p8-----8-10p8-8-10-12p10p8----------------| 
F---------------------------------------------------------------------| 
C---------------------------------------------------------------------| 
G---------------------------------------------------------------------| 
D---------------------------------------------------------------------| 

D-15p14p12--15p14p12--15p14p12-15p14p12--15p14p12--15^----------------| 
A---------------------------------------------------------------------| 
F---------------------------------------------------------------------| 
C---------------------------------------------------------------------| 
G---------------------------------------------------------------------| 
D---------------------------------------------------------------------| 
:
# outro #J&RX4  !all notes clean tone!
D-------------------------------------------------------------------------|
A-------------------------------------------------------------------------|
F---------7---------7-------7---------7-------7---------7-------7---------|
C------5---------5-------5---------5-------5---------5-------5------------|
G---7---------7-------5---------5-------3---------3-----------------------|
D---------------------------------------------------------3-------3---2---|
:
# final #J&R
D-----------------|
A-----------------|
F-------------7---|
C--------5--------|
G---7-------------|
D-----------------|
:
comments
We did not receive enough feedback on this tab! Please rate:
print report bad tab
1 2 3 4 5
I want to post or [tab]
guest
You may want to rate the tab now too:
select rating
Please do not post tabs as comments. Select "correction" instead!