Oops, an error
Loading. Please wait.

Gear Box Tab

version 1
version 1

Whole song

Interactive

1,417 views 1 this week
no commentswrite comment
1 2 3 4 5
1 last vote to show rating
add to favorites
launch autoscroll
font size
0
reset
how to read this tab
guitar tuner
Autoscroll
slow
fast
+/-
esc
set tempo
stop
Help us to improve Ultimate-Guitar.com Take our survey!
×
STRUNG OUT - GEAR BOX
--------------------------------------------------

tab by: Farting Gramps
farting_grampz@hotmail.com


KEY:

.   palm mute
*   pause
>   play a couple of times
... let ring
/   slide up



INTRO (fast picking):
------------------------------

GUITAR 1:
|-----------------------------------------------------|
|-----------------------------------------------------|
|--7--7--7--7---10--10--10--10------------------------|
|--7--7--7--7---10--10--10--10---8--8888---7--7777----|
|--5555555555---8-888-888-888----8--8888---7--7777----|
|--------------------------------6666666---5555555----|
    .. .. ..      ..  ..  ..      ..        ..

GUITAR 2:
|-----------------------------------------------------|
|-----------------------------------------------------|
|-----------------------------------------------------|
|--------------------------------8--8888---7--7777----|
|--------------------------------8--8888---7--7777----|
|--------------------------------6666666---5555555----|
                                  ..        ..


BOTH GUITARS:
|-----------------------------------------------------|
|-----------------------------------------------------|
|--7--7--7--7---10--10--10--10------------------------|
|--7--7--7--7---10--10--10--10---8--8888---7--7777----|
|--5555555555---8-888-888-888----8--8888---7--7777----|
|--------------------------------6666666---5555555----|
    .. .. ..      ..  ..  ..      ..        ..





VERSE:
------------------------------

GUITAR 1:
|------------------------------------------------------------|
|------------------------------------------------------------|
|--7--------------------------7>-----------------------------|
|--7-*-----8>----10>----7>----7>----8>----3>----7>-----------|
|--5-------8>----10>----7>----5>----8>----3>----7>-----------|
|----------6>----8->----5>----------6>----1>----5>-----------|

GUITAR 2:
|------------------------------------------------------------|
|------------------------------------------------------------|
|--7--------------------------7>-----------------------------|
|--7-*-----8>----10>----7>----7>----8>----3>----7--7--7--7---|
|--5-------8>----10>----7>----5>----8>----3>----7--7--7--7---|
|----------6>----8->----5>----------6>----1>----5555555555---|
                                                 .. .. ..


BOTH GUITARS:
|-------------------------------------------------|
|-------------------------------------------------|
|--7>-----------------------7>--------------------|
|--7>----8>----10>----7>----7>----8>--------10>---|
|--5>----8>----10>----7>----5>----8>--------10>---|
|--------6>----8->----5>----------6>--------8->---|




CHORUS:
------------------------------

BOTH GUITARS:
|------------------------------------|
|------------------------------------|
|--------------7>--10>---------------|
|--3>----7>----7>--10>--8>----8-10---|
|--3>----7>----5>--8->--8>----8-10---| x2
|--1>----5>-------------6>----6-8----|



POST CHORUS:
------------------------------
        

GUITAR 1:
|-------------------------------------------------------------|
|-------------------------------------------------------------|
|--7--7--7--7--7--7--7---10--10--10--10-----------------------|
|--7--7--7--7--7--7--7---10--10--10--10---8--8888---7--7777---|
|--5555555555555555555---8-888-888-888----8--8888---7--7777---|
|-----------------------------------------6666666---5555555---|
    .. .. .. .. .. ..      ..  ..  ..      ..        .. 

GUITAR 2:
|-------------------------------------------------------------|
|-------------------------------------------------------------|
|--7--7--7--7------------10--10--10--10-----------------------|
|--7--7--7--7------------10--10--10--10---8--8888---7--7777---|
|--5555555555-------------8888-888-888----8--8888---7--7777---|
|-----------------------------------------6666666---5555555---|
    .. .. ..               ..  ..  ..      ..        ..


BOTH GUITARS:
|-------------------------------------------------------|
|-------------------------------------------------------|
|--7--7--7--7---10--10--10--10--------------------------|
|--7--7--7--7---10--10--10--10---8--8888---7------------|
|--5555555555---8-888-888-888----8--8888---7-PICKSLIDE--|
|--------------------------------6666666---5------------|
    .. .. ..      ..  ..  ..      ..        



REPEAT VERSE

REPEAT CHORUS x1



CHORUS 2:
------------------------------

GUITAR 1:
|-----------------------------------|
|-----------------------------------|
|--------------7>--10>--------------|
|--3>----7>----7>--10>--8>----7>----|
|--3>----7>----5>--8->--8>----7>----|
|--1>----5>-------------6>----5>----|

GUITAR 2:
|-----------------------------------|
|-----------------------------------|
|--------------7>--10>---------9>---|
|--3>----7>----x>--x->---------x>---|
|--3>----7>----5>--8->---------7>---|
|--1>----5>-------------------------|



THEN:
------------------------------

BOTH GUITARS:
|-----------------------------------------|
|-----------------------------------------|
|--7...----10...--------------------------|
|--7...----10...----7...----6...--10...---|
|--5...----8-...----7...----8...--10...---|
|-------------------5...----6...--8 ...---|
+ GUITAR 2: PICKSLIDE


GUITAR 1:
|-------------------------------|
|-------------------------------|
|--7>-----------9>--------------|
|--7>----10>----x>----8>--10>---|
|--5>----8->----7>----8>--10>---|
|---------------------6>--8->---|

GUITAR 2:
|-------------------------------|
|-------------------------------|
|--7>----10>----9>--------------|
|--7>----x->----x>----8>--10>---|
|--5>----8->----7>----8>--10>---|
|---------------------6>--8->---|


BOTH GUITARS:
|----------------------------------------|
|----------------------------------------|
|-------------7-7>--10-10>---------------|
|--3>----7>---7-7>--10-10>--8>----8/10---|
|--3>----7>---5-5>--8--8->--8>----8/10-*-| x2
|--1>----5>-----------------6>----6/8----|
                .      .

BOTH GUITARS:
|--------------------------------------------------|
|--------------------------------------------------|
|------------------------7-7>--10-10>--------------|
|--3>----7---------------7-7>--10-10>--8>----8-10--|
|--3>----7-*--PICKSLIDE--5-5>--8--8->--8>----8-10--|
|--1>----5----PICKSLIDE----------------6>----6-8---|
                           .      .



BRIDGE:
------------------------------

BOTH GUITARS:
|-----------------------------------------|
|-----------------------------------------|
|--7-7-7-7-7------------------------------|
|--7-7-7-7-7--12-12--10-10--8>--10-10--7--|
|--5-5-5-5-5--12-12--10-10--8>--10-10--7--|
|-------------10-10--8--8---6>--8--8---5--|
     .   .                                   


|-----------------------------------------|
|-----------------------------------------|
|--7-7-7-7-7--10-10--12-12--14>--12-12--9-|
|--7-7-7-7-7--x--x---x--x---x->--x--x---x-|
|--5-5-5-5-5--8--8---10-10--12>--10-10--7-|
|-----------------------------------------|
     .   .


|-----------------------------------------|
|-----------------------------------------|
|--7-7-7-7-7------------------------------|
|--7-7-7-7-7--12-12--10-10--8>--10-10--7--|
|--5-5-5-5-5--12-12--10-10--8>--10-10--7--|
|-------------10-10--8--8---6>--8--8---5--|
     .   .                                   


|-------------------------------------------------|
|-------------------------------------------------|
|--7-7-7-7-7--10-10--12-12--14>--12-12------------|
|--7-7-7-7-7--x--x---x--x---x->--x--x-------------|
|--5-5-5-5-5--8--8---10-10--12>--10-10--PICKSLIDE-|
|-------------------------------------------------|
     .   .



BOTH GUITARS:
|-----------------------------------|
|-----------------------------------|
|-------------7>--10>---------------|
|--3>----7>---7>--10>--8>----8-10---|
|--3>----7>---5>--8->--8>----8-10---|
|--1>----5>------------6>----6-8----|
               

|--------------------------------------------|
|--------------------------------------------|
|-------------7-7>--10-10>-------------------|
|--3>----7>---7-7>--10-10>--8>---8-8-8-8-10--|
|--3>----7>---5-5>--8--8->--8>---8-8-8-8-10--|
|--1>----5>-----------------6>---6-6-6-6-8---|
                .      .         . . .





OUTRO:
------------------------------

BOTH GUITARS:
|---------------------------|
|---------------------------|
|--10>----------------------|
|--10>----7>----8>----10>---|
|--8->----7>----8>----10>---|
|---------5>----6>----8->---|


|------------------------------|
|------------------------------|
|--10>-------------------------|
|--10>----7>----8>--10>--3...--|
|--8->----7>----8>--10>--3...--|
|---------5>----6>--8->--1...--|




GUITAR 1:                                               
                        x3                       x6
|---------------|-----------------|--------------------------------|       
|---------------|-----------------|--------------------------------|        
|---------------|-----------------|--------------------------------|        
|---------10----|-----------10----|---------10-------------7-------|       
|--8-8--8----8--|--8-8-8--8----8--|--8-8--8----8--8-8-8--8---8-7---|        
|---------------|-----------------|--------------------------------|     

|----------------------------------------------|
|----------------------------------------------|
|----------------------------------------------|
|---------10-------------10-8-7----------------|
|--8-8--8----8--8-8-8--8--------10-8...-...----|
|----------------------------------------------|



GUITAR 2:
|----------------------------------------------------------------|
|----------------------------------------------------------------|
|--7-7-77-7-77-7-77-7---------------------7>---------------------|
|--7-7-77-7-77-7-77-7----8>--10>----3>----7>----8>--10>----3>----|
|--5-5-55-5-55-5-55-5----8>--10>----3>----5>----8>--10>----3>----|
|------------------------6>--8->----1>----------6>--8->----1>----|
   .   ..   ..   ..


|-----------------------------------------------|
|-----------------------------------------------|
|--7-7-77-7-77-7-77-7---------------------------|
|--7-7-77-7-77-7-77-7----8>--10>----3>...-...---|
|--5-5-55-5-55-5-55-5----8>--10>----3>...-...---|
|------------------------6>--8->----1>...-...---|
   .   ..   ..   ..





\m/ (O_o) \m/
±PUNK 4 LIFE±
Suggest correction
Give kudos to tab author, rate the tab!
1 2 3 4 5
comments
print report bad tab
guest
You may want to rate the tab now too:
select rating
Wanna post a correction for this tab? Suggest correction