Oops, an error
Loading. Please wait.

Jack Knife Bass Tab

937 views 1 this week
1 commentread comment
1 2 3 4 5
please rate
add to favorites
launch autoscroll
font size
0
reset
guitar tuner
Tab Pro tools
  • play this tab
  • loop segment
  • change instrument
  • show fretboard
  • metronome
×
Best way to learn
"Jack Knife"
Autoscroll
slow
fast
+/-
esc
set tempo
stop
Contributor
Difficulty
Tuning
intermediate
D A D G B E
Artist: Strung Out
Song: Jack Knife
Album: Agents From The Underground
Tuning: Drop D

Might be 1 mistake, should be all good, listen to the song for the proper rhythm.

-Intro 1/A-
G|-----------------------------|
D|-----------------------------|
A|-5-5\--------5-5\------------|
D|-------88-8\-------0~0~0~000-|

-Intro 1/B-
G|---------------------------------------------------------|
D|---------------------------------------------------------|
A|-5~5555-1~1111-3~3333-0~0000-5~5555-1~1111-3~3333-0~0000-|
D|---------------------------------------------------------|

-Verse 1-
G|-------------------------------------------------------------|
D|---------------------------32--------------------------------|
A|--------1~1111--------0~000--5--------1~1111--------0~000----|
D|-0~0000--------3~3333----------0~0000--------3~3333------320-|

G|-----------------------------------------------------------|
D|---------------------------32------------------------------|
A|--------1~1111--------0~000--5--------1~1111--------0~0000-|
D|-0~0000--------3~3333----------0~0000--------3~3333--------|

-Intro 2/B-
G|----------------------------------|
D|----------------------------------|
A|-5~5555-1~1111-3~3333-0~0000-5\---|
D|----------------------------------|

-Pre Verse 1-
G|-----------------------------|
D|-----------------------------|
A|-----------------------------|
D|-0~0~0~0~023-5~55555-8~88888-|

-Verse 2-
G|-------------------------------------------------------------|
D|---------------------------32--------------------------------|
A|--------1~1111--------0~000--5--------1~1111--------0~000----|
D|-0~0000--------3~3333----------0~0000--------3~3333------320-|

G|-----------------------------------------------------------|
D|---------------------------32------------------------------|
A|--------1~1111--------0~000--5--------1~1111--------0~0000-|
D|-0~0000--------3~3333----------0~0000--------3~3333--------|

-Pre Chorus 1/A-
G|--------------------|
D|--------------------|
A|--------------------|
D|-2~~53~~52~~53~~4~~-|

-Chorus 1-
G|------------------------------------------------------------|
D|------------------------------------------------------------|
A|-5-5\-1~1111-----------------5-5\-1~1111--------------------|
D|-------------3~333-35-2~2222-------------3~3333-5~555-7~777-|

G|-----------------------------|
D|-----------------------------|
A|-5-5\-1~1111-----------------|
D|-------------3~333-35-2~2222-|

-Bridge 1-
G|--------------------------------------------------|
D|--------------------------------------------------|
A|--------------------------------------------------|
D|-00~0-0-0-0-0005~5-5-5-5-553~3-3-3-3-338~8-8-8-88-|

                                                             (slide to 11's)
G|-------------------------------------------------------------------------|
D|-------------------------------------------------------------------------|
A|-----------------------------------------/11~111111111111313131315151515-|
D|-0~00000~00000-5~5555~55555-3~3333333333---------------------------------|

-Solo 1-
G|---------------------------------------------------------|
D|---------------------------------------------------------|
A|--------1~1111--------0~0000--------1~1111--------0~0000-|
D|-0~0000--------3~3333--------0~0000--------3~3333--------|

-Pre Chorus 2/B-
G|--------------------------------------------------------|
D|--------------------------------------------------------|
A|---------1~1-111---------0~0-000---------1~1-111--------|
D|-0~0-000---------3~3-333---------0~0-000---------3~2~0--|

-Chorus 1-
G|------------------------------------------------------------|
D|------------------------------------------------------------|
A|-5-5\-1~1111-----------------5-5\-1~1111--------------------|
D|-------------3~333-35-2~2222-------------3~3333-5~555-7~777-|

G|-----------------------------|
D|-----------------------------|
A|-5-5\-1~1111-----------------|
D|-------------3~333-35-2~2222-|

Outro 1/A-
G|---------------------------------------------------------------|
D|---------------------------------------------------------------|
A|-1~1111---------------0~0000-1~1111-3~3333-5~5557875-5~5557875-|
D|--------3~3333-5~5555------------------------------------------|

G|---------------------------------------------------------------|
D|--------3~3333-5~5555-7~7777-----------------------------------|
A|-1~1111----------------------1~1111-3~3333-5~5557875-5~5557875-|
D|---------------------------------------------------------------|

G|---------------------------------------------------------------|
D|--------3~3333-5~5555-7~7777-----------------------------------|
A|-1~1111----------------------1~1111-3~3333-5~5557875-5~5557875-|
D|---------------------------------------------------------------|

-Outro 1/B-
G|----------------------------------------------------------|
D|----------------------12~12121214151412-12~12121214151412-|
A|-5~5557875-5~5557875--------------------------------------|
D|----------------------------------------------------------|

-End-
G|-----|
D|-----|
A|-5\--|
D|-----|

comments
We did not receive enough feedback on this tab! Please rate:
print report bad tab
1 2 3 4 5
1 comment total.
0 reply
leo3libras wrote on May 31 2014, 06:16 pm

nice dude!!!

I want to post or [tab]
guest
You may want to rate the tab now too:
select rating
Please do not post tabs as comments. Select "correction" instead!