Oops, an error
Loading. Please wait.

Kids Bass Tab

225 views 1 this week
no commentswrite comment
1 2 3 4 5
please rate
add to favorites
launch autoscroll
font size
0
reset
guitar tuner
Tab Pro tools
  • play this tab
  • loop segment
  • change instrument
  • show fretboard
  • metronome
×
Best way to learn
"Kids"
Autoscroll
slow
fast
+/-
esc
set tempo
stop
Contributor
Tuning-C,G,C,F

                                                             (4x)
F----------|-------------------------------------------------|
C----------|-------------------------------------------------|
G----------|-------------------------------------------------|
C--8-8-10\\-|--8-8--10\\--8-10\\-8-10\\-8-10\\-8-10\\-8-10\\-|

F------------|
C------------|
G------------|
C—8-8---10r--|
                                   (2x)
F---------------------------------|
C---------------------------------|
G---------------------------------|
C—33----33----3/2-00----11----11--|

                             (2x)
F---------------------------|
C---------------------------|
G-----6>------------6>------|
C-3>------8>----3>------8>--|

Chorus:
F-------3x--------|-------------------|
C---5>------------|----5>-------------|
G------6>--3>--5>-|-------6>--3>--5>--|
C-----------------|-3-----------------|

F---------------------------------------|
C---------------------------------------|
G------------77—66—44-----------77—63---|
C-33—33—33---------------33—33—---------|

Verse 2:
F-----------------------------------------|
C------------------------------88887—87r--|
G----6>-----------6>----------------------|
C-3>----7>----3>------8>----3>------------|

Chorus 2:
F--------------------------------------------------------|
C—5>-------------5>------------55---5---77---7---7-6-5---|
G----6>--3>--5>------6>--3>--3----3---5----5---5-------7-|
C--------------------------------------------------------|
                    2x
F------------------|
C—5>---------------|
G----6>---3>---5>--|
C------------------|

Bridge:
F--------------------------------------|
C--------------------------------------|
G—6>---3/5-----------------------------|
C----------6/3-33-3-3-3-33-33-3-3-3-33-|

F-----------------------------------------|
C-----8-----------------------------------|
G-6>----6-3/5-----------------------------|
C-------------6/3-33-3-3-3-33-33-3-3-3-33-|

F--------------------------------|
C--------------------------------|
G—6>--5>-------------------------|
C--------33-3-3-3-33-33-3-3-3-33-|

F--------------------------------|
C--------------------------------|
G-6>--5>-------------------------|
C--------6/33—33—33-333-33—33-333|

Chorus 3: Same as Chorus 2

F----------------------------|
C—5>-------------------------|
G----6>---3>--5555555--------|
C---------------------666—3--|

Outro:
F---------|
C---------|
G---------|
C-3-1—3\ -|
comments
We did not receive enough feedback on this tab! Please rate:
print report bad tab
1 2 3 4 5
I want to post or [tab]
guest
You may want to rate the tab now too:
select rating
Please do not post tabs as comments. Select "correction" instead!