Oops, an error
Loading. Please wait.

King Alvarez Tab

version 2
version 2

Solo

207 views 1 this week
no commentswrite comment
1 2 3 4 5
please rate
add to favorites
launch autoscroll
font size
0
reset
how to read this tab
guitar tuner
Autoscroll
slow
fast
+/-
esc
set tempo
stop
Help us to improve Ultimate-Guitar.com Take our survey!
×
Author
Difficulty
Tuning
intermediate
D G C F A D
Strung Out - King Alvarez - Solos
By: Kevin Mawn (October 2009)
Video: McMawnster on Youtube.com
Tuning: DGCFAd

0m31s - First Solo (Rob Ramos)

        PMPM    PMPM                    PMPM    PMPM
d-12-12------12------12--12-12----12-12------12------12--12---12--------------------------|
A-12-12-1212-12-1212-12--12-12h14-12-12-1212-12-1212-12--12h14--14p12---------------------|
F---------------------------------------------------------------------131313-14--13-11-13-|
C-----------------------------------------------------------------------------------------|
G-----------------------------------------------------------------------------------------|
D-----------------------------------------------------------------------------------------|

                                                  PMPM          PMPMPM 
d--------------------------------------------------------------------------------------|
A----------------------------------9-----9---------------------------------------------|
F-9-9--11p9-11b13-r11--9--11-9-----9-----9---------------------------------------------|
C-------------------------------11----11---11-----9-9h11-11--9--6-6-6h7-p6---6---------|
G--------------------------------------------------------------------------9----7------|
D--------------------------------------------------------------------------------------|

1m45s - Second Solo - Fast Part (Rob Ramos) 
d-----------------------------------------------------------------------------|
A-9--------9-----9-----9------9--------------------------------12v----14h12---|
F-11b13----b13---b13---b13----b13r11p9----9-----------------------------------|
C--------------------------------------11----11-----9h11/14-------------------|
G-----------------------------------------------------------------------------|
D-----------------------------------------------------------------------------|

d---14b16-16-16r14p12--12----------------14-----------------------------------|
A--------------------14---14p12-14p12-14--------------------------------------|
F-----------------------------------------------------------------------------|
C--------------------------------------------------------7---------7----------|
G--------------------------------------------/10---9p7-----9---7h9---9--------|
D------------------------------------------------------9----------------------|

d-----------------------------------------------------------------------------|
A------5/----8h10p8h10v---15b17r15-14p12\10h12p10\9h10p9----------------------|
F---------/9------------/9------------------------------11p9--9b11---r9(hold)-|
C-5h6h7-----------------------------------------------------11----------------|
G-----------------------------------------------------------------------------|
D-----------------------------------------------------------------------------|

2m01s - Second Solo - Slower Part (Rob Ramos) 
d-----------------------------------------------------------12#---------------|
A-----------------------------------------------------------12#--------9--9\--|
F-9--9-9-9-----9-----11/13\11v--9-11-/13-11-9----9--8--9v--------------9--9\--|
C-----------11----11--------------------------11----------------11h9----------|
G-------------------------------------------------------------------11--------|
D-----------------------------------------------------------------------------|
# Strum fast
Suggest correction
What's this?
You can suggest a correction to this tab. Community and Mods will review your correction and vote to approve or reject it.
comments
We did not receive enough feedback on this tab! Please rate:
print report bad tab
1 2 3 4 5
guest
You may want to rate the tab now too:
select rating
Please do not post tabs as comments. Select "correction" instead!